  0
SECTION
  2
HEADER
  9
$ACADVER
  1
AC1021
  9
$ACADMAINTVER
 70
    25
  9
$DWGCODEPAGE
  3
ANSI_1252
  9
$LASTSAVEDBY
  1
jbassett
  9
$INSBASE
 10
0.0
 20
0.0
 30
0.0
  9
$EXTMIN
 10
-18.56393829093168
 20
-661.200000254313
 30
0.0
  9
$EXTMAX
 10
1582.925975247256
 20
1003.372699491373
 30
0.0
  9
$LIMMIN
 10
759.4629876236
 20
-29.0803166667
  9
$LIMMAX
 10
2296.3889628709
 20
1961.4923833333
  9
$ORTHOMODE
 70
     0
  9
$REGENMODE
 70
     1
  9
$FILLMODE
 70
     1
  9
$QTEXTMODE
 70
     0
  9
$MIRRTEXT
 70
     1
  9
$LTSCALE
 40
1.0
  9
$ATTMODE
 70
     1
  9
$TEXTSIZE
 40
0.2
  9
$TRACEWID
 40
0.05
  9
$TEXTSTYLE
  7
Standard
  9
$CLAYER
  8
0
  9
$CELTYPE
  6
Continuous
  9
$CECOLOR
 62
     7
  9
$CELTSCALE
 40
1.0
  9
$DISPSILH
 70
     0
  9
$DIMSCALE
 40
1.0
  9
$DIMASZ
 40
0.18
  9
$DIMEXO
 40
0.0625
  9
$DIMDLI
 40
0.38
  9
$DIMRND
 40
0.0000001
  9
$DIMDLE
 40
0.0
  9
$DIMEXE
 40
0.18
  9
$DIMTP
 40
0.0
  9
$DIMTM
 40
0.0
  9
$DIMTXT
 40
0.18
  9
$DIMCEN
 40
0.09
  9
$DIMTSZ
 40
0.0
  9
$DIMTOL
 70
     0
  9
$DIMLIM
 70
     0
  9
$DIMTIH
 70
     1
  9
$DIMTOH
 70
     1
  9
$DIMSE1
 70
     0
  9
$DIMSE2
 70
     0
  9
$DIMTAD
 70
     0
  9
$DIMZIN
 70
     0
  9
$DIMBLK
  1

  9
$DIMASO
 70
     0
  9
$DIMSHO
 70
     0
  9
$DIMPOST
  1
<>
  9
$DIMAPOST
  1
<>
  9
$DIMALT
 70
     0
  9
$DIMALTD
 70
     2
  9
$DIMALTF
 40
25.4
  9
$DIMLFAC
 40
1.0
  9
$DIMTOFL
 70
     0
  9
$DIMTVP
 40
0.0
  9
$DIMTIX
 70
     0
  9
$DIMSOXD
 70
     0
  9
$DIMSAH
 70
     0
  9
$DIMBLK1
  1

  9
$DIMBLK2
  1

  9
$DIMSTYLE
  2
Standard
  9
$DIMCLRD
 70
     0
  9
$DIMCLRE
 70
     0
  9
$DIMCLRT
 70
     0
  9
$DIMTFAC
 40
1.0
  9
$DIMGAP
 40
0.09
  9
$DIMJUST
 70
     0
  9
$DIMSD1
 70
     0
  9
$DIMSD2
 70
     0
  9
$DIMTOLJ
 70
     1
  9
$DIMTZIN
 70
     0
  9
$DIMALTZ
 70
     0
  9
$DIMALTTZ
 70
     0
  9
$DIMUPT
 70
     0
  9
$DIMDEC
 70
     4
  9
$DIMTDEC
 70
     4
  9
$DIMALTU
 70
     2
  9
$DIMALTTD
 70
     2
  9
$DIMTXSTY
  7
Standard
  9
$DIMAUNIT
 70
     0
  9
$DIMADEC
 70
     4
  9
$DIMALTRND
 40
0.0
  9
$DIMAZIN
 70
     0
  9
$DIMDSEP
 70
     0
  9
$DIMATFIT
 70
     3
  9
$DIMFRAC
 70
     0
  9
$DIMLDRBLK
  1

  9
$DIMLUNIT
 70
     2
  9
$DIMLWD
 70
     0
  9
$DIMLWE
 70
     0
  9
$DIMTMOVE
 70
     0
  9
$DIMFXL
 40
1.0
  9
$DIMFXLON
 70
     0
  9
$DIMJOGANG
 40
0.7853981633974483
  9
$DIMTFILL
 70
     0
  9
$DIMTFILLCLR
 70
     0
  9
$DIMARCSYM
 70
     0
  9
$DIMLTYPE
  6

  9
$DIMLTEX1
  6

  9
$DIMLTEX2
  6

  9
$LUNITS
 70
     2
  9
$LUPREC
 70
     4
  9
$SKETCHINC
 40
0.1
  9
$FILLETRAD
 40
0.0
  9
$AUNITS
 70
     0
  9
$AUPREC
 70
     0
  9
$MENU
  1
.
  9
$ELEVATION
 40
0.0
  9
$PELEVATION
 40
0.0
  9
$THICKNESS
 40
0.0
  9
$LIMCHECK
 70
     0
  9
$CHAMFERA
 40
0.0
  9
$CHAMFERB
 40
0.0
  9
$CHAMFERC
 40
0.0
  9
$CHAMFERD
 40
0.0
  9
$SKPOLY
 70
     0
  9
$TDCREATE
 40
2453354.133792488
  9
$TDUCREATE
 40
2453353.717125822
  9
$TDUPDATE
 40
2447893.459039364
  9
$TDUUPDATE
 40
2447893.042372697
  9
$TDINDWG
 40
0.0437268634
  9
$TDUSRTIMER
 40
0.0437152894
  9
$USRTIMER
 70
     1
  9
$ANGBASE
 50
0.0
  9
$ANGDIR
 70
     0
  9
$PDMODE
 70
     0
  9
$PDSIZE
 40
0.0
  9
$PLINEWID
 40
0.0
  9
$SPLFRAME
 70
     0
  9
$SPLINETYPE
 70
     6
  9
$SPLINESEGS
 70
     8
  9
$HANDSEED
  5
11F
  9
$SURFTAB1
 70
     6
  9
$SURFTAB2
 70
     6
  9
$SURFTYPE
 70
     6
  9
$SURFU
 70
     6
  9
$SURFV
 70
     6
  9
$UCSBASE
  2

  9
$UCSNAME
  2

  9
$UCSORG
 10
0.0
 20
0.0
 30
0.0
  9
$UCSXDIR
 10
1.0
 20
0.0
 30
0.0
  9
$UCSYDIR
 10
0.0
 20
1.0
 30
0.0
  9
$UCSORTHOREF
  2

  9
$UCSORTHOVIEW
 70
     0
  9
$UCSORGTOP
 10
0.0
 20
0.0
 30
0.0
  9
$UCSORGBOTTOM
 10
0.0
 20
0.0
 30
0.0
  9
$UCSORGLEFT
 10
0.0
 20
0.0
 30
0.0
  9
$UCSORGRIGHT
 10
0.0
 20
0.0
 30
0.0
  9
$UCSORGFRONT
 10
0.0
 20
0.0
 30
0.0
  9
$UCSORGBACK
 10
0.0
 20
0.0
 30
0.0
  9
$PUCSBASE
  2

  9
$PUCSNAME
  2

  9
$PUCSORG
 10
0.0
 20
0.0
 30
0.0
  9
$PUCSXDIR
 10
1.0
 20
0.0
 30
0.0
  9
$PUCSYDIR
 10
0.0
 20
1.0
 30
0.0
  9
$PUCSORTHOREF
  2

  9
$PUCSORTHOVIEW
 70
     0
  9
$PUCSORGTOP
 10
0.0
 20
0.0
 30
0.0
  9
$PUCSORGBOTTOM
 10
0.0
 20
0.0
 30
0.0
  9
$PUCSORGLEFT
 10
0.0
 20
0.0
 30
0.0
  9
$PUCSORGRIGHT
 10
0.0
 20
0.0
 30
0.0
  9
$PUCSORGFRONT
 10
0.0
 20
0.0
 30
0.0
  9
$PUCSORGBACK
 10
0.0
 20
0.0
 30
0.0
  9
$USERI1
 70
     0
  9
$USERI2
 70
     0
  9
$USERI3
 70
     0
  9
$USERI4
 70
     0
  9
$USERI5
 70
     0
  9
$USERR1
 40
0.0
  9
$USERR2
 40
0.0
  9
$USERR3
 40
0.0
  9
$USERR4
 40
0.0
  9
$USERR5
 40
0.0
  9
$WORLDVIEW
 70
     1
  9
$SHADEDGE
 70
     3
  9
$SHADEDIF
 70
    70
  9
$TILEMODE
 70
     1
  9
$MAXACTVP
 70
    16
  9
$PINSBASE
 10
0.0
 20
0.0
 30
0.0
  9
$PLIMCHECK
 70
     0
  9
$PEXTMIN
 10
0.0
 20
0.0
 30
0.0
  9
$PEXTMAX
 10
0.0
 20
0.0
 30
0.0
  9
$PLIMMIN
 10
0.0
 20
0.0
  9
$PLIMMAX
 10
12.0
 20
9.0
  9
$UNITMODE
 70
     0
  9
$VISRETAIN
 70
     0
  9
$PLINEGEN
 70
     1
  9
$PSLTSCALE
 70
     0
  9
$TREEDEPTH
 70
  3020
  9
$CMLSTYLE
  2
Standard
  9
$CMLJUST
 70
     0
  9
$CMLSCALE
 40
1.0
  9
$PROXYGRAPHICS
 70
     0
  9
$MEASUREMENT
 70
     0
  9
$CELWEIGHT
370
     0
  9
$ENDCAPS
280
     0
  9
$JOINSTYLE
280
     0
  9
$LWDISPLAY
290
     0
  9
$INSUNITS
 70
     0
  9
$HYPERLINKBASE
  1

  9
$STYLESHEET
  1

  9
$XEDIT
290
     0
  9
$CEPSNTYPE
380
     0
  9
$PSTYLEMODE
290
     1
  9
$FINGERPRINTGUID
  2

  9
$VERSIONGUID
  2

  9
$EXTNAMES
290
     1
  9
$PSVPSCALE
 40
0.0
  9
$OLESTARTUP
290
     0
  9
$SORTENTS
280
   127
  9
$INDEXCTL
280
     0
  9
$HIDETEXT
280
     1
  9
$XCLIPFRAME
290
     0
  9
$HALOGAP
280
     0
  9
$OBSCOLOR
 70
   257
  9
$OBSLTYPE
280
     0
  9
$INTERSECTIONDISPLAY
280
     0
  9
$INTERSECTIONCOLOR
 70
   257
  9
$DIMASSOC
280
     2
  9
$PROJECTNAME
  1

  9
$CAMERADISPLAY
290
     0
  9
$LENSLENGTH
 40
50.0
  9
$CAMERAHEIGHT
 40
0.0
  9
$STEPSPERSEC
 40
2.0
  9
$STEPSIZE
 40
6.0
  9
$3DDWFPREC
 40
2.0
  9
$PSOLWIDTH
 40
0.25
  9
$PSOLHEIGHT
 40
4.0
  9
$LOFTANG1
 40
1.570796326794897
  9
$LOFTANG2
 40
1.570796326794897
  9
$LOFTMAG1
 40
0.0
  9
$LOFTMAG2
 40
0.0
  9
$LOFTPARAM
 70
     7
  9
$LOFTNORMALS
280
     1
  9
$LATITUDE
 40
37.795
  9
$LONGITUDE
 40
-122.394
  9
$NORTHDIRECTION
 40
0.0
  9
$TIMEZONE
 70
 -8000
  9
$LIGHTGLYPHDISPLAY
280
     1
  9
$TILEMODELIGHTSYNCH
280
     1
  9
$SOLIDHIST
280
     1
  9
$SHOWHIST
280
     1
  9
$DWFFRAME
280
     2
  9
$DGNFRAME
280
     2
  9
$REALWORLDSCALE
290
     1
  9
$INTERFERECOLOR
 62
   256
  9
$CSHADOW
280
     0
  9
$SHADOWPLANELOCATION
 40
0.0
  0
ENDSEC
  0
SECTION
  2
CLASSES
  0
CLASS
  1
ACDBDICTIONARYWDFLT
  2
AcDbDictionaryWithDefault
  3
ObjectDBX Classes
 90
        0
 91
        4
280
     0
281
     0
  0
CLASS
  1
ACDBPLACEHOLDER
  2
AcDbPlaceHolder
  3
ObjectDBX Classes
 90
        0
 91
        1
280
     0
281
     0
  0
CLASS
  1
LAYOUT
  2
AcDbLayout
  3
ObjectDBX Classes
 90
        0
 91
        1
280
     0
281
     0
  0
CLASS
  1
DICTIONARYVAR
  2
AcDbDictionaryVar
  3
ObjectDBX Classes
 90
        0
 91
        4
280
     0
281
     0
  0
CLASS
  1
TABLESTYLE
  2
AcDbTableStyle
  3
ObjectDBX Classes
 90
     4095
 91
        4
280
     0
281
     0
  0
CLASS
  1
SCALE
  2
AcDbScale
  3
ObjectDBX Classes
 90
     1153
 91
        4
280
     0
281
     0
  0
ENDSEC
  0
SECTION
  2
TABLES
  0
TABLE
  2
VPORT
  5
8
330
0
100
AcDbSymbolTable
 70
     2
  0
VPORT
  5
97
330
8
100
AcDbSymbolTableRecord
100
AcDbViewportTableRecord
  2
*ACTIVE
 70
     0
 10
0.0
 20
0.0
 11
1.0
 21
1.0
 12
23.53542031866311
 22
818.347224332816
 13
0.0
 23
0.0
 14
0.5
 24
0.5
 15
0.5
 25
0.5
 16
0.0
 26
0.0
 36
1.0
 17
776.191857736724
 27
-647.260874714286
 37
0.0
 40
1643.792046933574
 41
1.85119047619
 42
50.0
 43
0.0
 44
0.0
 50
0.0
 51
0.0
 71
    16
 72
   100
 73
     1
 74
     1
 75
     0
 76
     0
 77
     0
 78
     0
281
     0
 65
     0
110
0.0
120
0.0
130
0.0
111
1.0
121
0.0
131
0.0
112
0.0
122
1.0
132
0.0
 79
     0
146
0.0
 60
     3
 61
     5
292
     1
282
     1
141
0.0
142
0.0
 63
   256
  0
ENDTAB
  0
TABLE
  2
LTYPE
  5
5
330
0
100
AcDbSymbolTable
 70
    16
  0
LTYPE
  5
14
330
5
100
AcDbSymbolTableRecord
100
AcDbLinetypeTableRecord
  2
ByBlock
 70
     0
  3

 72
    65
 73
     0
 40
0.0
  0
LTYPE
  5
15
330
5
100
AcDbSymbolTableRecord
100
AcDbLinetypeTableRecord
  2
ByLayer
 70
     0
  3

 72
    65
 73
     0
 40
0.0
  0
LTYPE
  5
16
330
5
100
AcDbSymbolTableRecord
100
AcDbLinetypeTableRecord
  2
Continuous
 70
     0
  3
Solid line
 72
    65
 73
     0
 40
0.0
  0
LTYPE
  5
10C
330
5
100
AcDbSymbolTableRecord
100
AcDbLinetypeTableRecord
  2
BORDER
 70
     0
  3
BORDER
 72
    65
 73
     6
 40
1.75
 49
0.5
 74
     4
 75
     0
340
0
 46
1.0
 50
0.0
 44
0.0
 45
0.0
 49
-0.25
 74
     4
 75
     0
340
0
 46
1.0
 50
0.0
 44
0.0
 45
0.0
 49
0.5
 74
     4
 75
     0
340
0
 46
1.0
 50
0.0
 44
0.0
 45
0.0
 49
-0.25
 74
     4
 75
     0
340
0
 46
1.0
 50
0.0
 44
0.0
 45
0.0
 49
0.0
 74
     4
 75
     0
340
0
 46
1.0
 50
0.0
 44
0.0
 45
0.0
 49
-0.25
 74
     4
 75
     0
340
0
 46
1.0
 50
0.0
 44
0.0
 45
0.0
  0
LTYPE
  5
10D
330
5
100
AcDbSymbolTableRecord
100
AcDbLinetypeTableRecord
  2
CENTER
 70
     0
  3
CENTER
 72
    65
 73
     4
 40
2.0
 49
1.25
 74
     4
 75
     0
340
0
 46
1.0
 50
0.0
 44
0.0
 45
0.0
 49
-0.25
 74
     4
 75
     0
340
0
 46
1.0
 50
0.0
 44
0.0
 45
0.0
 49
0.25
 74
     4
 75
     0
340
0
 46
1.0
 50
0.0
 44
0.0
 45
0.0
 49
-0.25
 74
     4
 75
     0
340
0
 46
1.0
 50
0.0
 44
0.0
 45
0.0
  0
LTYPE
  5
10E
330
5
100
AcDbSymbolTableRecord
100
AcDbLinetypeTableRecord
  2
DASHDOT
 70
     0
  3
DASHDOT
 72
    65
 73
     4
 40
1.0
 49
0.5
 74
     4
 75
     0
340
0
 46
1.0
 50
0.0
 44
0.0
 45
0.0
 49
-0.25
 74
     4
 75
     0
340
0
 46
1.0
 50
0.0
 44
0.0
 45
0.0
 49
0.0
 74
     4
 75
     0
340
0
 46
1.0
 50
0.0
 44
0.0
 45
0.0
 49
-0.25
 74
     4
 75
     0
340
0
 46
1.0
 50
0.0
 44
0.0
 45
0.0
  0
LTYPE
  5
10F
330
5
100
AcDbSymbolTableRecord
100
AcDbLinetypeTableRecord
  2
DASHED
 70
     0
  3
DASHED
 72
    65
 73
     2
 40
0.75
 49
0.5
 74
     4
 75
     0
340
0
 46
1.0
 50
0.0
 44
0.0
 45
0.0
 49
-0.25
 74
     4
 75
     0
340
0
 46
1.0
 50
0.0
 44
0.0
 45
0.0
  0
LTYPE
  5
110
330
5
100
AcDbSymbolTableRecord
100
AcDbLinetypeTableRecord
  2
DIVIDE
 70
     0
  3
DIVIDE
 72
    65
 73
     6
 40
1.25
 49
0.5
 74
     4
 75
     0
340
0
 46
1.0
 50
0.0
 44
0.0
 45
0.0
 49
-0.25
 74
     4
 75
     0
340
0
 46
1.0
 50
0.0
 44
0.0
 45
0.0
 49
0.0
 74
     4
 75
     0
340
0
 46
1.0
 50
0.0
 44
0.0
 45
0.0
 49
-0.25
 74
     4
 75
     0
340
0
 46
1.0
 50
0.0
 44
0.0
 45
0.0
 49
0.0
 74
     4
 75
     0
340
0
 46
1.0
 50
0.0
 44
0.0
 45
0.0
 49
-0.25
 74
     4
 75
     0
340
0
 46
1.0
 50
0.0
 44
0.0
 45
0.0
  0
LTYPE
  5
111
330
5
100
AcDbSymbolTableRecord
100
AcDbLinetypeTableRecord
  2
DOT
 70
     0
  3
DOT
 72
    65
 73
     2
 40
0.25
 49
0.0
 74
     4
 75
     0
340
0
 46
1.0
 50
0.0
 44
0.0
 45
0.0
 49
-0.25
 74
     4
 75
     0
340
0
 46
1.0
 50
0.0
 44
0.0
 45
0.0
  0
LTYPE
  5
112
330
5
100
AcDbSymbolTableRecord
100
AcDbLinetypeTableRecord
  2
HIDDEN
 70
     0
  3
HIDDEN
 72
    65
 73
     2
 40
0.375
 49
0.25
 74
     4
 75
     0
340
0
 46
1.0
 50
0.0
 44
0.0
 45
0.0
 49
-0.125
 74
     4
 75
     0
340
0
 46
1.0
 50
0.0
 44
0.0
 45
0.0
  0
LTYPE
  5
113
330
5
100
AcDbSymbolTableRecord
100
AcDbLinetypeTableRecord
  2
PHANTOM
 70
     0
  3
PHANTOM
 72
    65
 73
     6
 40
2.5
 49
1.25
 74
     4
 75
     0
340
0
 46
1.0
 50
0.0
 44
0.0
 45
0.0
 49
-0.25
 74
     4
 75
     0
340
0
 46
1.0
 50
0.0
 44
0.0
 45
0.0
 49
0.25
 74
     4
 75
     0
340
0
 46
1.0
 50
0.0
 44
0.0
 45
0.0
 49
-0.25
 74
     4
 75
     0
340
0
 46
1.0
 50
0.0
 44
0.0
 45
0.0
 49
0.25
 74
     4
 75
     0
340
0
 46
1.0
 50
0.0
 44
0.0
 45
0.0
 49
-0.25
 74
     4
 75
     0
340
0
 46
1.0
 50
0.0
 44
0.0
 45
0.0
  0
LTYPE
  5
114
330
5
100
AcDbSymbolTableRecord
100
AcDbLinetypeTableRecord
  2
$INVISIBLE
 70
     0
  3
$INVISIBLE
 72
    65
 73
     2
 40
200.0
 49
-100.0
 74
     4
 75
     0
340
0
 46
1.0
 50
0.0
 44
0.0
 45
0.0
 49
-100.0
 74
     4
 75
     0
340
0
 46
1.0
 50
0.0
 44
0.0
 45
0.0
  0
LTYPE
  5
115
330
5
100
AcDbSymbolTableRecord
100
AcDbLinetypeTableRecord
  2
DCTYPE1
 70
     0
  3
DCTYPE1
 72
    65
 73
     8
 40
2.0
 49
0.5
 74
     4
 75
     0
340
0
 46
1.0
 50
0.0
 44
0.0
 45
0.0
 49
-0.25
 74
     4
 75
     0
340
0
 46
1.0
 50
0.0
 44
0.0
 45
0.0
 49
0.125
 74
     4
 75
     0
340
0
 46
1.0
 50
0.0
 44
0.0
 45
0.0
 49
-0.25
 74
     4
 75
     0
340
0
 46
1.0
 50
0.0
 44
0.0
 45
0.0
 49
0.25
 74
     4
 75
     0
340
0
 46
1.0
 50
0.0
 44
0.0
 45
0.0
 49
-0.25
 74
     4
 75
     0
340
0
 46
1.0
 50
0.0
 44
0.0
 45
0.0
 49
0.125
 74
     4
 75
     0
340
0
 46
1.0
 50
0.0
 44
0.0
 45
0.0
 49
-0.25
 74
     4
 75
     0
340
0
 46
1.0
 50
0.0
 44
0.0
 45
0.0
  0
LTYPE
  5
116
330
5
100
AcDbSymbolTableRecord
100
AcDbLinetypeTableRecord
  2
DCTYPE2
 70
     0
  3
DCTYPE2
 72
    65
 73
     6
 40
2.05
 49
1.0
 74
     4
 75
     0
340
0
 46
1.0
 50
0.0
 44
0.0
 45
0.0
 49
-0.3
 74
     4
 75
     0
340
0
 46
1.0
 50
0.0
 44
0.0
 45
0.0
 49
0.15
 74
     4
 75
     0
340
0
 46
1.0
 50
0.0
 44
0.0
 45
0.0
 49
-0.15
 74
     4
 75
     0
340
0
 46
1.0
 50
0.0
 44
0.0
 45
0.0
 49
0.15
 74
     4
 75
     0
340
0
 46
1.0
 50
0.0
 44
0.0
 45
0.0
 49
-0.3
 74
     4
 75
     0
340
0
 46
1.0
 50
0.0
 44
0.0
 45
0.0
  0
LTYPE
  5
117
330
5
100
AcDbSymbolTableRecord
100
AcDbLinetypeTableRecord
  2
DCTYPE3
 70
     0
  3
DCTYPE3
 72
    65
 73
     6
 40
2.5
 49
0.8
 74
     4
 75
     0
340
0
 46
1.0
 50
0.0
 44
0.0
 45
0.0
 49
-0.2
 74
     4
 75
     0
340
0
 46
1.0
 50
0.0
 44
0.0
 45
0.0
 49
0.8
 74
     4
 75
     0
340
0
 46
1.0
 50
0.0
 44
0.0
 45
0.0
 49
-0.2
 74
     4
 75
     0
340
0
 46
1.0
 50
0.0
 44
0.0
 45
0.0
 49
0.3
 74
     4
 75
     0
340
0
 46
1.0
 50
0.0
 44
0.0
 45
0.0
 49
-0.2
 74
     4
 75
     0
340
0
 46
1.0
 50
0.0
 44
0.0
 45
0.0
  0
LTYPE
  5
118
330
5
100
AcDbSymbolTableRecord
100
AcDbLinetypeTableRecord
  2
DCTYPE4
 70
     0
  3
DCTYPE4
 72
    65
 73
    10
 40
3.969999999999999
 49
1.75
 74
     4
 75
     0
340
0
 46
1.0
 50
0.0
 44
0.0
 45
0.0
 49
-0.3
 74
     4
 75
     0
340
0
 46
1.0
 50
0.0
 44
0.0
 45
0.0
 49
0.3
 74
     4
 75
     0
340
0
 46
1.0
 50
0.0
 44
0.0
 45
0.0
 49
-0.3
 74
     4
 75
     0
340
0
 46
1.0
 50
0.0
 44
0.0
 45
0.0
 49
0.06
 74
     4
 75
     0
340
0
 46
1.0
 50
0.0
 44
0.0
 45
0.0
 49
-0.3
 74
     4
 75
     0
340
0
 46
1.0
 50
0.0
 44
0.0
 45
0.0
 49
0.06
 74
     4
 75
     0
340
0
 46
1.0
 50
0.0
 44
0.0
 45
0.0
 49
-0.3
 74
     4
 75
     0
340
0
 46
1.0
 50
0.0
 44
0.0
 45
0.0
 49
0.3
 74
     4
 75
     0
340
0
 46
1.0
 50
0.0
 44
0.0
 45
0.0
 49
-0.3
 74
     4
 75
     0
340
0
 46
1.0
 50
0.0
 44
0.0
 45
0.0
  0
LTYPE
  5
119
330
5
100
AcDbSymbolTableRecord
100
AcDbLinetypeTableRecord
  2
$SNAPEXT
 70
     0
  3
$SNAPEXT
 72
    65
 73
     2
 40
0.04
 49
0.02
 74
     4
 75
     0
340
0
 46
1.0
 50
0.0
 44
0.0
 45
0.0
 49
-0.02
 74
     4
 75
     0
340
0
 46
1.0
 50
0.0
 44
0.0
 45
0.0
  0
LTYPE
  5
11A
330
5
100
AcDbSymbolTableRecord
100
AcDbLinetypeTableRecord
  2
$AUXILIARY
 70
     0
  3
$AUXILIARY
 72
    65
 73
     2
 40
0.1
 49
0.05
 74
     4
 75
     0
340
0
 46
1.0
 50
0.0
 44
0.0
 45
0.0
 49
-0.05
 74
     4
 75
     0
340
0
 46
1.0
 50
0.0
 44
0.0
 45
0.0
  0
ENDTAB
  0
TABLE
  2
LAYER
  5
2
330
0
100
AcDbSymbolTable
 70
     4
  0
LAYER
  5
10
330
2
100
AcDbSymbolTableRecord
100
AcDbLayerTableRecord
  2
0
 70
     0
 62
     8
  6
Continuous
370
     0
390
F
347
0
1001
TCAD
1000
TCW_LAYER_ORDER
1002
{
1071
        0
1002
}
  0
LAYER
  5
33
330
2
100
AcDbSymbolTableRecord
100
AcDbLayerTableRecord
  2
LAYER2
 70
     0
 62
     8
  6
Continuous
370
     0
390
F
347
0
1001
TCAD
1000
TCW_LAYER_ORDER
1002
{
1071
        0
1002
}
  0
LAYER
  5
34
330
2
100
AcDbSymbolTableRecord
100
AcDbLayerTableRecord
  2
LAYER3
 70
     0
 62
     8
  6
Continuous
370
     0
390
F
347
0
1001
TCAD
1000
TCW_LAYER_ORDER
1002
{
1071
        0
1002
}
  0
LAYER
  5
35
330
2
100
AcDbSymbolTableRecord
100
AcDbLayerTableRecord
  2
LAYER4
 70
     0
 62
     8
  6
Continuous
370
     0
390
F
347
0
1001
TCAD
1000
TCW_LAYER_ORDER
1002
{
1071
        0
1002
}
  0
ENDTAB
  0
TABLE
  2
STYLE
  5
3
330
0
100
AcDbSymbolTable
 70
    19
  0
STYLE
  5
11
330
3
100
AcDbSymbolTableRecord
100
AcDbTextStyleTableRecord
  2
Standard
 70
     0
 40
0.0
 41
1.0
 50
0.0
 71
     0
 42
0.00000006
  3
TXT.SHX
  4

  0
STYLE
  5
37
330
3
100
AcDbSymbolTableRecord
100
AcDbTextStyleTableRecord
  2
_TCW_TXTSTY_1
 70
     0
 40
0.0
 41
0.78
 50
0.0
 71
     0
 42
26.0
  3
TXT.SHX
  4

  0
STYLE
  5
CA
330
3
100
AcDbSymbolTableRecord
100
AcDbTextStyleTableRecord
  2
_TCW_TXTSTY_2
 70
     0
 40
0.0
 41
0.92
 50
0.0
 71
     0
 42
24.0
  3
TXT.SHX
  4

  0
STYLE
  5
CB
330
3
100
AcDbSymbolTableRecord
100
AcDbTextStyleTableRecord
  2
_TCW_TXTSTY_3
 70
     0
 40
0.0
 41
0.84
 50
0.0
 71
     0
 42
26.0
  3
TXT.SHX
  4

  0
STYLE
  5
7B
330
3
100
AcDbSymbolTableRecord
100
AcDbTextStyleTableRecord
  2
_TCW_TXTSTY_4
 70
     0
 40
0.0
 41
0.41
 50
0.0
 71
     0
 42
16.0
  3
TXT.SHX
  4

  0
STYLE
  5
7D
330
3
100
AcDbSymbolTableRecord
100
AcDbTextStyleTableRecord
  2
_TCW_TXTSTY_5
 70
     0
 40
0.0
 41
0.74
 50
0.0
 71
     0
 42
25.0
  3
TXT.SHX
  4

  0
STYLE
  5
7F
330
3
100
AcDbSymbolTableRecord
100
AcDbTextStyleTableRecord
  2
_TCW_TXTSTY_6
 70
     0
 40
0.0
 41
0.67
 50
0.0
 71
     0
 42
25.0
  3
TXT.SHX
  4

  0
STYLE
  5
81
330
3
100
AcDbSymbolTableRecord
100
AcDbTextStyleTableRecord
  2
_TCW_TXTSTY_7
 70
     0
 40
0.0
 41
0.7
 50
0.0
 71
     0
 42
15.0
  3
TXT.SHX
  4

  0
STYLE
  5
83
330
3
100
AcDbSymbolTableRecord
100
AcDbTextStyleTableRecord
  2
_TCW_TXTSTY_8
 70
     0
 40
0.0
 41
0.68
 50
0.0
 71
     0
 42
25.0
  3
TXT.SHX
  4

  0
STYLE
  5
85
330
3
100
AcDbSymbolTableRecord
100
AcDbTextStyleTableRecord
  2
_TCW_TXTSTY_9
 70
     0
 40
0.0
 41
0.71
 50
0.0
 71
     0
 42
25.0
  3
TXT.SHX
  4

  0
STYLE
  5
87
330
3
100
AcDbSymbolTableRecord
100
AcDbTextStyleTableRecord
  2
_TCW_TXTSTY_A
 70
     0
 40
0.0
 41
0.66
 50
0.0
 71
     0
 42
25.0
  3
TXT.SHX
  4

  0
STYLE
  5
89
330
3
100
AcDbSymbolTableRecord
100
AcDbTextStyleTableRecord
  2
_TCW_TXTSTY_B
 70
     0
 40
0.0
 41
0.54
 50
0.0
 71
     0
 42
25.0
  3
TXT.SHX
  4

  0
STYLE
  5
8B
330
3
100
AcDbSymbolTableRecord
100
AcDbTextStyleTableRecord
  2
_TCW_TXTSTY_C
 70
     0
 40
0.0
 41
0.57
 50
0.0
 71
     0
 42
25.0
  3
TXT.SHX
  4

  0
STYLE
  5
8D
330
3
100
AcDbSymbolTableRecord
100
AcDbTextStyleTableRecord
  2
_TCW_TXTSTY_D
 70
     0
 40
0.0
 41
0.58
 50
0.0
 71
     0
 42
25.0
  3
TXT.SHX
  4

  0
STYLE
  5
90
330
3
100
AcDbSymbolTableRecord
100
AcDbTextStyleTableRecord
  2
_TCW_TXTSTY_E
 70
     0
 40
0.0
 41
0.65
 50
0.0
 71
     0
 42
25.0
  3
TXT.SHX
  4

  0
STYLE
  5
CC
330
3
100
AcDbSymbolTableRecord
100
AcDbTextStyleTableRecord
  2
_TCW_TXTSTY_F
 70
     0
 40
0.0
 41
0.64
 50
0.0
 71
     0
 42
25.0
  3
TXT.SHX
  4

  0
STYLE
  5
CD
330
3
100
AcDbSymbolTableRecord
100
AcDbTextStyleTableRecord
  2
_TCW_TXTSTY_10
 70
     0
 40
0.0
 41
0.69
 50
0.0
 71
     0
 42
25.0
  3
TXT.SHX
  4

  0
STYLE
  5
CE
330
3
100
AcDbSymbolTableRecord
100
AcDbTextStyleTableRecord
  2
_TCW_TXTSTY_11
 70
     0
 40
0.0
 41
0.76
 50
0.0
 71
     0
 42
25.0
  3
TXT.SHX
  4

  0
STYLE
  5
CF
330
3
100
AcDbSymbolTableRecord
100
AcDbTextStyleTableRecord
  2
_TCW_TXTSTY_12
 70
     0
 40
0.0
 41
0.86
 50
0.0
 71
     0
 42
26.0
  3
TXT.SHX
  4

  0
ENDTAB
  0
TABLE
  2
VIEW
  5
6
330
0
100
AcDbSymbolTable
 70
     1
  0
VIEW
  5
36
330
6
100
AcDbSymbolTableRecord
100
AcDbViewTableRecord
  2
View_0
 70
     0
 40
8.267716535433
 10
5.846456692913
 20
4.133858267717
 41
11.692913385827
 11
0.0
 21
0.0
 31
1.0
 12
0.0
 22
0.0
 32
0.0
 42
45.247172312671
 43
0.0
 44
0.0
 50
0.0
 71
     0
281
     0
 72
     0
 73
     0
  0
ENDTAB
  0
TABLE
  2
UCS
  5
7
330
0
100
AcDbSymbolTable
 70
     0
  0
ENDTAB
  0
TABLE
  2
APPID
  5
9
330
0
100
AcDbSymbolTable
 70
     2
  0
APPID
  5
12
330
9
100
AcDbSymbolTableRecord
100
AcDbRegAppTableRecord
  2
ACAD
 70
     0
  0
APPID
  5
10B
330
9
100
AcDbSymbolTableRecord
100
AcDbRegAppTableRecord
  2
TCAD
 70
     0
  0
ENDTAB
  0
TABLE
  2
DIMSTYLE
  5
A
330
0
100
AcDbSymbolTable
 70
     1
100
AcDbDimStyleTable
  0
DIMSTYLE
105
27
330
A
100
AcDbSymbolTableRecord
100
AcDbDimStyleTableRecord
  2
Standard
 70
     0
  3
<>
  4
<>
 45
0.0000001
148
0.0000001
179
     4
340
11
  0
ENDTAB
  0
TABLE
  2
BLOCK_RECORD
  5
1
330
0
100
AcDbSymbolTable
 70
     0
  0
BLOCK_RECORD
  5
1F
102
{ACAD_XDICTIONARY
360
11E
102
}
330
1
100
AcDbSymbolTableRecord
100
AcDbBlockTableRecord
  2
*Model_Space
340
22
 70
     0
280
     1
281
     0
  0
BLOCK_RECORD
  5
73
330
1
100
AcDbSymbolTableRecord
100
AcDbBlockTableRecord
  2
*Paper_Space
340
F8
 70
     0
280
     1
281
     0
  0
ENDTAB
  0
ENDSEC
  0
SECTION
  2
BLOCKS
  0
BLOCK
  5
20
330
1F
100
AcDbEntity
  8
0
100
AcDbBlockBegin
  2
*Model_Space
 70
     0
 10
0.0
 20
0.0
 30
0.0
  3
*Model_Space
  1

  0
ENDBLK
  5
21
330
1F
100
AcDbEntity
  8
0
100
AcDbBlockEnd
  0
BLOCK
  5
75
330
73
100
AcDbEntity
 67
     1
  8
0
100
AcDbBlockBegin
  2
*Paper_Space
 70
     0
 10
0.0
 20
0.0
 30
0.0
  3
*Paper_Space
  1

  0
ENDBLK
  5
76
330
73
100
AcDbEntity
 67
     1
  8
0
100
AcDbBlockEnd
  0
ENDSEC
  0
SECTION
  2
ENTITIES
  0
TEXT
  5
38
330
1F
100
AcDbEntity
  8
0
  6
Continuous
 62
     8
100
AcDbText
 10
423.0
 20
-661.200000254313
 30
0.0
 40
25.999999237061
  1
Scale 1:10
 41
0.822384969082493
  7
_TCW_TXTSTY_1
 72
     5
 11
587.000005722046
 21
-661.200000254313
 31
0.0
100
AcDbText
1001
TCAD
1000
TCW40_TEXT
1002
{
1000
txt.shx
1070
     0
1070
  1025
1002
}
  0
LWPOLYLINE
  5
39
330
1F
100
AcDbEntity
  8
0
  6
Continuous
 62
     8
100
AcDbPolyline
 90
        3
 70
     0
 43
0.0
 10
623.0
 20
16.8
 10
523.0
 20
16.8
 10
373.0
 20
-9.2
1001
ACAD
1000
TCW40_DEV_WIDTH
1002
{
1040
-3.0
1002
}
  0
LWPOLYLINE
  5
3A
330
1F
100
AcDbEntity
  8
0
  6
Continuous
 62
     8
100
AcDbPolyline
 90
        4
 70
     0
 43
0.0
 10
399.5061
 20
-9.8831
 10
373.0
 20
-9.2
 10
397.7299
 20
0.3641
 10
399.5061
 20
-9.8831
1001
ACAD
1000
TCW40_DEV_WIDTH
1002
{
1040
-3.0
1002
}
  0
LWPOLYLINE
  5
3B
330
1F
100
AcDbEntity
  8
0
  6
Continuous
 62
     8
100
AcDbPolyline
 90
        3
 70
     0
 43
0.0
 10
623.0
 20
-101.2
 10
531.0
 20
-101.2
 10
309.0
 20
-65.2
1001
ACAD
1000
TCW40_DEV_WIDTH
1002
{
1040
-3.0
1002
}
  0
LWPOLYLINE
  5
3C
330
1F
100
AcDbEntity
  8
0
  6
Continuous
 62
     8
100
AcDbPolyline
 90
        4
 70
     0
 43
0.0
 10
331.9222
 20
-73.7798
 10
309.0
 20
-65.2
 10
333.4589
 20
-64.3036
 10
331.9222
 20
-73.7798
1001
ACAD
1000
TCW40_DEV_WIDTH
1002
{
1040
-3.0
1002
}
  0
LINE
  5
3D
330
1F
100
AcDbEntity
  8
0
  6
Continuous
 62
     8
100
AcDbLine
 10
623.0
 20
126.8
 30
0.0
 11
375.0
 21
126.8
 31
0.0
1001
ACAD
1000
TCW40_DEV_WIDTH
1002
{
1040
-3.0
1002
}
  0
LWPOLYLINE
  5
3E
330
1F
100
AcDbEntity
  8
0
  6
Continuous
 62
     8
100
AcDbPolyline
 90
        4
 70
     0
 43
0.0
 10
399.0
 20
122.0
 10
375.0
 20
126.8
 10
399.0
 20
131.6
 10
399.0
 20
122.0
1001
ACAD
1000
TCW40_DEV_WIDTH
1002
{
1040
-3.0
1002
}
  0
LWPOLYLINE
  5
3F
330
1F
100
AcDbEntity
  8
0
  6
Continuous
 62
     8
100
AcDbPolyline
 90
        3
 70
     0
 43
0.0
 10
619.0
 20
274.8
 10
497.0
 20
274.8
 10
311.0
 20
214.8
1001
ACAD
1000
TCW40_DEV_WIDTH
1002
{
1040
-3.0
1002
}
  0
LWPOLYLINE
  5
40
330
1F
100
AcDbEntity
  8
0
  6
Continuous
 62
     8
100
AcDbPolyline
 90
        4
 70
     0
 43
0.0
 10
337.3409
 20
217.8332
 10
311.0
 20
214.8
 10
334.148
 20
227.731
 10
337.3409
 20
217.8332
1001
ACAD
1000
TCW40_DEV_WIDTH
1002
{
1040
-3.0
1002
}
  0
CIRCLE
  5
41
330
1F
100
AcDbEntity
  8
LAYER2
  6
Continuous
 62
     8
100
AcDbCircle
 10
303.0
 20
-61.2
 30
0.0
 40
5.6569
1001
ACAD
1000
TCW40_DEV_WIDTH
1002
{
1040
-3.0
1002
}
  0
CIRCLE
  5
42
330
1F
100
AcDbEntity
  8
LAYER2
  6
Continuous
 62
     8
100
AcDbCircle
 10
303.0
 20
208.8
 30
0.0
 40
6.0
1001
ACAD
1000
TCW40_DEV_WIDTH
1002
{
1040
-3.0
1002
}
  0
LWPOLYLINE
  5
43
330
1F
100
AcDbEntity
  8
LAYER3
  6
Continuous
 62
     8
100
AcDbPolyline
 90
        2
 70
     0
 43
2.0
 10
319.0
 20
-99.2
 10
285.0
 20
-99.2
  0
LWPOLYLINE
  5
44
330
1F
100
AcDbEntity
  8
LAYER3
  6
Continuous
 62
     8
100
AcDbPolyline
 90
        5
 70
     0
 43
2.0
 10
317.0
 20
-99.2
 10
328.5625
 20
-96.3875
 10
334.5
 20
-90.2
 10
336.6875
 20
-84.0125
 10
337.0
 20
-81.2
  0
LWPOLYLINE
  5
45
330
1F
100
AcDbEntity
  8
LAYER3
  6
Continuous
 62
     8
100
AcDbPolyline
 90
        5
 70
     0
 43
2.0
 10
287.0
 20
-99.2
 10
275.4375
 20
-96.3875
 10
269.5
 20
-90.2
 10
267.3125
 20
-84.0125
 10
267.0
 20
-81.2
  0
LWPOLYLINE
  5
46
330
1F
100
AcDbEntity
  8
LAYER3
  6
Continuous
 62
     8
100
AcDbPolyline
 90
        2
 70
     0
 43
2.0
 10
233.0
 20
40.8
 10
267.0
 20
40.8
  0
LWPOLYLINE
  5
47
330
1F
100
AcDbEntity
  8
LAYER3
  6
Continuous
 62
     8
100
AcDbPolyline
 90
        2
 70
     0
 43
2.0
 10
267.0
 20
40.8
 10
267.0
 20
-83.2
  0
LWPOLYLINE
  5
48
330
1F
100
AcDbEntity
  8
LAYER3
  6
Continuous
 62
     8
100
AcDbPolyline
 90
        2
 70
     0
 43
2.0
 10
337.0
 20
40.8
 10
337.0
 20
-83.2
  0
LWPOLYLINE
  5
49
330
1F
100
AcDbEntity
  8
LAYER3
  6
Continuous
 62
     8
100
AcDbPolyline
 90
        2
 70
     0
 43
2.0
 10
337.0
 20
40.8
 10
373.0
 20
40.8
  0
LWPOLYLINE
  5
4A
330
1F
100
AcDbEntity
  8
LAYER3
  6
Continuous
 62
     8
100
AcDbPolyline
 90
        2
 70
     0
 43
2.0
 10
337.0
 20
50.8
 10
373.0
 20
50.8
  0
LWPOLYLINE
  5
4B
330
1F
100
AcDbEntity
  8
LAYER3
  6
Continuous
 62
     8
100
AcDbPolyline
 90
        2
 70
     0
 43
2.0
 10
263.0
 20
50.8
 10
267.0
 20
240.8
  0
LWPOLYLINE
  5
4C
330
1F
100
AcDbEntity
  8
LAYER3
  6
Continuous
 62
     8
100
AcDbPolyline
 90
        2
 70
     0
 43
2.0
 10
343.0
 20
50.8
 10
337.0
 20
240.8
  0
LWPOLYLINE
  5
4D
330
1F
100
AcDbEntity
  8
LAYER3
  6
Continuous
 62
     8
100
AcDbPolyline
 90
       37
 70
     0
 43
2.0
 10
267.0
 20
40.8
 10
267.4251
 20
40.9168
 10
267.8463
 20
41.0357
 10
268.2598
 20
41.1587
 10
268.6617
 20
41.2881
 10
269.0483
 20
41.4258
 10
269.4156
 20
41.574
 10
269.7599
 20
41.7347
 10
270.0772
 20
41.9101
 10
270.3637
 20
42.1022
 10
270.6156
 20
42.3132
 10
270.8289
 20
42.5451
 10
271.0
 20
42.8
 10
271.1652
 20
43.2016
 10
271.2454
 20
43.6461
 10
271.2481
 20
44.1258
 10
271.1805
 20
44.6333
 10
271.0501
 20
45.1612
 10
270.8644
 20
45.7021
 10
270.6306
 20
46.2483
 10
270.3562
 20
46.7926
 10
270.0485
 20
47.3273
 10
269.715
 20
47.8451
 10
269.363
 20
48.3385
 10
269.0
 20
48.8
 10
268.8359
 20
48.9943
 10
268.6712
 20
49.1814
 10
268.5058
 20
49.362
 10
268.3399
 20
49.5366
 10
268.1735
 20
49.706
 10
268.0066
 20
49.8708
 10
267.8394
 20
50.0317
 10
267.6719
 20
50.1893
 10
267.5041
 20
50.3443
 10
267.3362
 20
50.4973
 10
267.1681
 20
50.649
 10
267.0
 20
50.8
  0
LWPOLYLINE
  5
4E
330
1F
100
AcDbEntity
  8
LAYER3
  6
Continuous
 62
     8
100
AcDbPolyline
 90
       37
 70
     0
 43
2.0
 10
337.0
 20
40.8
 10
336.8146
 20
40.9479
 10
336.63
 20
41.0966
 10
336.447
 20
41.2469
 10
336.2663
 20
41.3996
 10
336.0887
 20
41.5553
 10
335.9151
 20
41.7151
 10
335.7462
 20
41.8795
 10
335.5829
 20
42.0494
 10
335.4258
 20
42.2257
 10
335.2757
 20
42.409
 10
335.1335
 20
42.6002
 10
335.0
 20
42.8
 10
334.7478
 20
43.2536
 10
334.5388
 20
43.7417
 10
334.3739
 20
44.2567
 10
334.2538
 20
44.7905
 10
334.1792
 20
45.3355
 10
334.151
 20
45.8836
 10
334.17
 20
46.4271
 10
334.2369
 20
46.958
 10
334.3526
 20
47.4687
 10
334.5178
 20
47.9511
 10
334.7333
 20
48.3975
 10
335.0
 20
48.8
 10
335.232
 20
49.0677
 10
335.4904
 20
49.309
 10
335.7729
 20
49.5264
 10
336.077
 20
49.7223
 10
336.4004
 20
49.8989
 10
336.7405
 20
50.0588
 10
337.0951
 20
50.2043
 10
337.4616
 20
50.3378
 10
337.8378
 20
50.4617
 10
338.2212
 20
50.5785
 10
338.6094
 20
50.6904
 10
339.0
 20
50.8
  0
LWPOLYLINE
  5
4F
330
1F
100
AcDbEntity
  8
LAYER3
  6
Continuous
 62
     8
100
AcDbPolyline
 90
        2
 70
     0
 43
2.0
 10
233.0
 20
240.8
 10
267.0
 20
240.8
  0
LWPOLYLINE
  5
50
330
1F
100
AcDbEntity
  8
LAYER3
  6
Continuous
 62
     8
100
AcDbPolyline
 90
        2
 70
     0
 43
2.0
 10
337.0
 20
240.8
 10
373.0
 20
240.8
  0
LWPOLYLINE
  5
51
330
1F
100
AcDbEntity
  8
LAYER3
  6
Continuous
 62
     8
100
AcDbPolyline
 90
        2
 70
     0
 43
2.0
 10
337.0
 20
250.8
 10
373.0
 20
250.8
  0
LWPOLYLINE
  5
52
330
1F
100
AcDbEntity
  8
LAYER3
  6
Continuous
 62
     8
100
AcDbPolyline
 90
       37
 70
     0
 43
2.0
 10
267.0
 20
240.8
 10
267.4251
 20
240.9168
 10
267.8463
 20
241.0357
 10
268.2598
 20
241.1587
 10
268.6617
 20
241.2881
 10
269.0483
 20
241.4258
 10
269.4156
 20
241.574
 10
269.7599
 20
241.7347
 10
270.0772
 20
241.9101
 10
270.3637
 20
242.1022
 10
270.6156
 20
242.3132
 10
270.8289
 20
242.5451
 10
271.0
 20
242.8
 10
271.1652
 20
243.2016
 10
271.2454
 20
243.6461
 10
271.2481
 20
244.1258
 10
271.1805
 20
244.6333
 10
271.0501
 20
245.1612
 10
270.8644
 20
245.7021
 10
270.6306
 20
246.2483
 10
270.3562
 20
246.7926
 10
270.0485
 20
247.3273
 10
269.715
 20
247.8451
 10
269.363
 20
248.3385
 10
269.0
 20
248.8
 10
268.8359
 20
248.9943
 10
268.6712
 20
249.1814
 10
268.5058
 20
249.362
 10
268.3399
 20
249.5366
 10
268.1735
 20
249.706
 10
268.0066
 20
249.8708
 10
267.8394
 20
250.0317
 10
267.6719
 20
250.1893
 10
267.5041
 20
250.3443
 10
267.3362
 20
250.4973
 10
267.1681
 20
250.649
 10
267.0
 20
250.8
  0
LWPOLYLINE
  5
53
330
1F
100
AcDbEntity
  8
LAYER3
  6
Continuous
 62
     8
100
AcDbPolyline
 90
       37
 70
     0
 43
2.0
 10
337.0
 20
240.8
 10
336.8146
 20
240.9479
 10
336.63
 20
241.0966
 10
336.447
 20
241.2469
 10
336.2663
 20
241.3996
 10
336.0887
 20
241.5553
 10
335.9151
 20
241.7151
 10
335.7462
 20
241.8795
 10
335.5829
 20
242.0495
 10
335.4258
 20
242.2257
 10
335.2757
 20
242.409
 10
335.1335
 20
242.6002
 10
335.0
 20
242.8
 10
334.7478
 20
243.2536
 10
334.5388
 20
243.7417
 10
334.3739
 20
244.2567
 10
334.2538
 20
244.7906
 10
334.1792
 20
245.3355
 10
334.151
 20
245.8836
 10
334.17
 20
246.4271
 10
334.2369
 20
246.9581
 10
334.3526
 20
247.4687
 10
334.5178
 20
247.9511
 10
334.7333
 20
248.3975
 10
335.0
 20
248.8
 10
335.232
 20
249.0677
 10
335.4904
 20
249.3091
 10
335.7729
 20
249.5264
 10
336.077
 20
249.7223
 10
336.4004
 20
249.8989
 10
336.7405
 20
250.0588
 10
337.0951
 20
250.2043
 10
337.4616
 20
250.3378
 10
337.8378
 20
250.4617
 10
338.2212
 20
250.5785
 10
338.6094
 20
250.6904
 10
339.0
 20
250.8
  0
LWPOLYLINE
  5
54
330
1F
100
AcDbEntity
  8
LAYER3
  6
Continuous
 62
     8
100
AcDbPolyline
 90
        2
 70
     0
 43
2.0
 10
233.0
 20
-297.2
 10
233.0
 20
330.8
  0
LWPOLYLINE
  5
55
330
1F
100
AcDbEntity
  8
LAYER3
  6
Continuous
 62
     8
100
AcDbPolyline
 90
        2
 70
     0
 43
2.0
 10
373.0
 20
330.8
 10
373.0
 20
-297.2
  0
LWPOLYLINE
  5
56
330
1F
100
AcDbEntity
  8
LAYER3
  6
Continuous
 62
     8
100
AcDbPolyline
 90
        2
 70
     0
 43
2.0
 10
263.0
 20
250.8
 10
265.0
 20
330.8
  0
LWPOLYLINE
  5
57
330
1F
100
AcDbEntity
  8
LAYER3
  6
Continuous
 62
     8
100
AcDbPolyline
 90
        2
 70
     0
 43
2.0
 10
343.0
 20
250.8
 10
341.0
 20
330.8
  0
LWPOLYLINE
  5
58
330
1F
100
AcDbEntity
  8
LAYER3
  6
Continuous
 62
     8
100
AcDbPolyline
 90
        2
 70
     0
 43
2.0
 10
337.0
 20
-149.2
 10
373.0
 20
-149.2
  0
LWPOLYLINE
  5
F9
330
1F
100
AcDbEntity
  8
LAYER3
  6
Continuous
 62
     8
100
AcDbPolyline
 90
       37
 70
     0
 43
2.0
 10
267.0
 20
-159.2
 10
267.4251
 20
-159.0832
 10
267.8463
 20
-158.9643
 10
268.2598
 20
-158.8413
 10
268.6617
 20
-158.7119
 10
269.0483
 20
-158.5742
 10
269.4156
 20
-158.426
 10
269.7599
 20
-158.2653
 10
270.0772
 20
-158.0899
 10
270.3637
 20
-157.8978
 10
270.6156
 20
-157.6868
 10
270.8289
 20
-157.4549
 10
271.0
 20
-157.2
 10
271.1652
 20
-156.7984
 10
271.2454
 20
-156.3539
 10
271.2481
 20
-155.8742
 10
271.1805
 20
-155.3667
 10
271.0501
 20
-154.8388
 10
270.8644
 20
-154.2979
 10
270.6306
 20
-153.7517
 10
270.3562
 20
-153.2074
 10
270.0485
 20
-152.6727
 10
269.715
 20
-152.1549
 10
269.363
 20
-151.6615
 10
269.0
 20
-151.2
 10
268.8359
 20
-151.0057
 10
268.6712
 20
-150.8186
 10
268.5058
 20
-150.638
 10
268.3399
 20
-150.4634
 10
268.1735
 20
-150.294
 10
268.0066
 20
-150.1292
 10
267.8394
 20
-149.9683
 10
267.6719
 20
-149.8107
 10
267.5041
 20
-149.6557
 10
267.3362
 20
-149.5027
 10
267.1681
 20
-149.351
 10
267.0
 20
-149.2
  0
LWPOLYLINE
  5
FA
330
1F
100
AcDbEntity
  8
LAYER3
  6
Continuous
 62
     8
100
AcDbPolyline
 90
       37
 70
     0
 43
2.0
 10
337.0
 20
-159.2
 10
336.8146
 20
-159.0521
 10
336.63
 20
-158.9034
 10
336.447
 20
-158.7531
 10
336.2663
 20
-158.6004
 10
336.0887
 20
-158.4447
 10
335.9151
 20
-158.2849
 10
335.7462
 20
-158.1205
 10
335.5829
 20
-157.9505
 10
335.4258
 20
-157.7743
 10
335.2757
 20
-157.591
 10
335.1335
 20
-157.3998
 10
335.0
 20
-157.2
 10
334.7478
 20
-156.7464
 10
334.5388
 20
-156.2583
 10
334.3739
 20
-155.7433
 10
334.2538
 20
-155.2095
 10
334.1792
 20
-154.6646
 10
334.151
 20
-154.1164
 10
334.17
 20
-153.5729
 10
334.2369
 20
-153.0419
 10
334.3526
 20
-152.5313
 10
334.5178
 20
-152.0489
 10
334.7333
 20
-151.6025
 10
335.0
 20
-151.2
 10
335.232
 20
-150.9323
 10
335.4904
 20
-150.6909
 10
335.7729
 20
-150.4736
 10
336.077
 20
-150.2777
 10
336.4004
 20
-150.1011
 10
336.7405
 20
-149.9412
 10
337.0951
 20
-149.7957
 10
337.4616
 20
-149.6622
 10
337.8378
 20
-149.5383
 10
338.2212
 20
-149.4215
 10
338.6094
 20
-149.3096
 10
339.0
 20
-149.2
  0
LWPOLYLINE
  5
5B
330
1F
100
AcDbEntity
  8
LAYER3
  6
Continuous
 62
     8
100
AcDbPolyline
 90
        2
 70
     0
 43
2.0
 10
267.0
 20
-159.2
 10
233.0
 20
-159.2
  0
LWPOLYLINE
  5
5C
330
1F
100
AcDbEntity
  8
LAYER3
  6
Continuous
 62
     8
100
AcDbPolyline
 90
        2
 70
     0
 43
2.0
 10
263.0
 20
-299.2
 10
267.0
 20
-159.2
  0
LWPOLYLINE
  5
5D
330
1F
100
AcDbEntity
  8
LAYER3
  6
Continuous
 62
     8
100
AcDbPolyline
 90
        2
 70
     0
 43
2.0
 10
267.0
 20
-159.2
 10
233.0
 20
-159.2
  0
LWPOLYLINE
  5
FB
330
1F
100
AcDbEntity
  8
LAYER3
  6
Continuous
 62
     8
100
AcDbPolyline
 90
        2
 70
     0
 43
2.0
 10
337.0
 20
-159.2
 10
373.0
 20
-159.2
  0
LWPOLYLINE
  5
5F
330
1F
100
AcDbEntity
  8
LAYER3
  6
Continuous
 62
     8
100
AcDbPolyline
 90
        2
 70
     0
 43
2.0
 10
341.0
 20
-299.2
 10
337.0
 20
-159.2
  0
LWPOLYLINE
  5
60
330
1F
100
AcDbEntity
  8
LAYER3
  6
Continuous
 62
     8
100
AcDbPolyline
 90
        2
 70
     0
 43
2.0
 10
337.0
 20
-159.2
 10
373.0
 20
-159.2
  0
LWPOLYLINE
  5
61
330
1F
100
AcDbEntity
  8
LAYER3
  6
Continuous
 62
     8
100
AcDbPolyline
 90
        2
 70
     0
 43
2.0
 10
337.0
 20
-149.2
 10
233.0
 20
-149.2
  0
LWPOLYLINE
  5
62
330
1F
100
AcDbEntity
  8
LAYER3
  6
Continuous
 62
     8
100
AcDbPolyline
 90
        2
 70
     0
 43
2.0
 10
233.0
 20
250.8
 10
337.0
 20
250.8
  0
LWPOLYLINE
  5
63
330
1F
100
AcDbEntity
  8
LAYER3
  6
Continuous
 62
     8
100
AcDbPolyline
 90
        2
 70
     0
 43
2.0
 10
233.0
 20
50.8
 10
337.0
 20
50.8
  0
LWPOLYLINE
  5
64
330
1F
100
AcDbEntity
  8
LAYER3
  6
Continuous
 62
     8
100
AcDbPolyline
 90
        2
 70
     0
 43
2.0
 10
339.0
 20
200.8
 10
267.0
 20
200.8
  0
LINE
  5
65
330
1F
100
AcDbEntity
  8
LAYER4
  6
Continuous
 62
     8
100
AcDbLine
 10
233.0
 20
-325.2
 30
0.0
 11
233.0
 21
-493.2
 31
0.0
1001
ACAD
1000
TCW40_DEV_WIDTH
1002
{
1040
-3.0
1002
}
  0
LINE
  5
66
330
1F
100
AcDbEntity
  8
LAYER4
  6
Continuous
 62
     8
100
AcDbLine
 10
373.0
 20
-325.2
 30
0.0
 11
373.0
 21
-493.2
 31
0.0
1001
ACAD
1000
TCW40_DEV_WIDTH
1002
{
1040
-3.0
1002
}
  0
LINE
  5
67
330
1F
100
AcDbEntity
  8
LAYER4
  6
Continuous
 62
     8
100
AcDbLine
 10
303.0
 20
-481.2
 30
0.0
 11
233.0
 21
-481.2
 31
0.0
1001
ACAD
1000
TCW40_DEV_WIDTH
1002
{
1040
-3.0
1002
}
  0
LINE
  5
68
330
1F
100
AcDbEntity
  8
LAYER4
  6
Continuous
 62
     8
100
AcDbLine
 10
221.0
 20
-493.2
 30
0.0
 11
245.0
 21
-469.2
 31
0.0
1001
ACAD
1000
TCW40_DEV_WIDTH
1002
{
1040
-3.0
1002
}
  0
LINE
  5
69
330
1F
100
AcDbEntity
  8
LAYER4
  6
Continuous
 62
     8
100
AcDbLine
 10
303.0
 20
-481.2
 30
0.0
 11
373.0
 21
-481.2
 31
0.0
1001
ACAD
1000
TCW40_DEV_WIDTH
1002
{
1040
-3.0
1002
}
  0
LINE
  5
6A
330
1F
100
AcDbEntity
  8
LAYER4
  6
Continuous
 62
     8
100
AcDbLine
 10
385.0
 20
-469.2
 30
0.0
 11
361.0
 21
-493.2
 31
0.0
1001
ACAD
1000
TCW40_DEV_WIDTH
1002
{
1040
-3.0
1002
}
  0
TEXT
  5
FC
330
1F
100
AcDbEntity
  8
LAYER4
  6
Continuous
 62
     8
100
AcDbText
 10
275.2801
 20
-467.2
 30
0.0
 40
24.0
  1
140
 41
1.064512312137576
  7
_TCW_TXTSTY_2
 72
     5
 11
330.719901216125
 21
-467.2
 31
0.0
100
AcDbText
1001
TCAD
1000
TCW40_TEXT
1002
{
1000
txt.shx
1070
     0
1070
  1025
1002
}
  0
LINE
  5
6D
330
1F
100
AcDbEntity
  8
LAYER4
  6
Continuous
 62
     8
100
AcDbLine
 10
303.0
 20
-325.2
 30
0.0
 11
303.0
 21
-423.2
 31
0.0
1001
ACAD
1000
TCW40_DEV_WIDTH
1002
{
1040
-3.0
1002
}
  0
LINE
  5
6E
330
1F
100
AcDbEntity
  8
LAYER4
  6
Continuous
 62
     8
100
AcDbLine
 10
373.0
 20
-325.2
 30
0.0
 11
373.0
 21
-423.2
 31
0.0
1001
ACAD
1000
TCW40_DEV_WIDTH
1002
{
1040
-3.0
1002
}
  0
LINE
  5
6F
330
1F
100
AcDbEntity
  8
LAYER4
  6
Continuous
 62
     8
100
AcDbLine
 10
339.0
 20
-411.2
 30
0.0
 11
303.0
 21
-411.2
 31
0.0
1001
ACAD
1000
TCW40_DEV_WIDTH
1002
{
1040
-3.0
1002
}
  0
LINE
  5
70
330
1F
100
AcDbEntity
  8
LAYER4
  6
Continuous
 62
     8
100
AcDbLine
 10
290.0
 20
-424.2
 30
0.0
 11
316.0
 21
-398.2
 31
0.0
1001
ACAD
1000
TCW40_DEV_WIDTH
1002
{
1040
-3.0
1002
}
  0
LINE
  5
71
330
1F
100
AcDbEntity
  8
LAYER4
  6
Continuous
 62
     8
100
AcDbLine
 10
339.0
 20
-411.2
 30
0.0
 11
373.0
 21
-411.2
 31
0.0
1001
ACAD
1000
TCW40_DEV_WIDTH
1002
{
1040
-3.0
1002
}
  0
LINE
  5
72
330
1F
100
AcDbEntity
  8
LAYER4
  6
Continuous
 62
     8
100
AcDbLine
 10
386.0
 20
-398.2
 30
0.0
 11
360.0
 21
-424.2
 31
0.0
1001
ACAD
1000
TCW40_DEV_WIDTH
1002
{
1040
-3.0
1002
}
  0
TEXT
  5
FD
330
1F
100
AcDbEntity
  8
LAYER4
  6
Continuous
 62
     8
100
AcDbText
 10
318.98
 20
-399.200000254313
 30
0.0
 40
25.999999237061
  1
70
 41
1.026666664738924
  7
_TCW_TXTSTY_3
 72
     5
 11
359.019998749892
 21
-399.200000254313
 31
0.0
100
AcDbText
1001
TCAD
1000
TCW40_TEXT
1002
{
1000
txt.shx
1070
     0
1070
  1025
1002
}
  0
LINE
  5
FE
330
1F
100
AcDbEntity
  8
LAYER4
  6
Continuous
 62
     8
100
AcDbLine
 10
115.0
 20
-59.2
 30
0.0
 11
47.0
 21
-59.2
 31
0.0
1001
ACAD
1000
TCW40_DEV_WIDTH
1002
{
1040
-3.0
1002
}
  0
LINE
  5
FF
330
1F
100
AcDbEntity
  8
LAYER4
  6
Continuous
 62
     8
100
AcDbLine
 10
115.0
 20
240.8
 30
0.0
 11
47.0
 21
240.8
 31
0.0
1001
ACAD
1000
TCW40_DEV_WIDTH
1002
{
1040
-3.0
1002
}
  0
LINE
  5
77
330
1F
100
AcDbEntity
  8
LAYER4
  6
Continuous
 62
     8
100
AcDbLine
 10
59.0
 20
90.8
 30
0.0
 11
59.0
 21
-59.2
 31
0.0
1001
ACAD
1000
TCW40_DEV_WIDTH
1002
{
1040
-3.0
1002
}
  0
LINE
  5
78
330
1F
100
AcDbEntity
  8
LAYER4
  6
Continuous
 62
     8
100
AcDbLine
 10
72.0
 20
-72.2
 30
0.0
 11
46.0
 21
-46.2
 31
0.0
1001
ACAD
1000
TCW40_DEV_WIDTH
1002
{
1040
-3.0
1002
}
  0
LINE
  5
79
330
1F
100
AcDbEntity
  8
LAYER4
  6
Continuous
 62
     8
100
AcDbLine
 10
59.0
 20
90.8
 30
0.0
 11
59.0
 21
240.8
 31
0.0
1001
ACAD
1000
TCW40_DEV_WIDTH
1002
{
1040
-3.0
1002
}
  0
LINE
  5
7A
330
1F
100
AcDbEntity
  8
LAYER4
  6
Continuous
 62
     8
100
AcDbLine
 10
46.0
 20
253.8
 30
0.0
 11
72.0
 21
227.8
 31
0.0
1001
ACAD
1000
TCW40_DEV_WIDTH
1002
{
1040
-3.0
1002
}
  0
TEXT
  5
7C
330
1F
100
AcDbEntity
  8
0
  6
Continuous
 62
     8
100
AcDbText
 10
1097.9931
 20
987.372699872843
 30
0.0
 40
15.99999961853
  1
      3
 41
0.2295782442980292
  7
_TCW_TXTSTY_4
 72
     5
 11
1144.533200574493
 21
987.372699872843
 31
0.0
100
AcDbText
1001
TCAD
1000
TCW40_TEXT
1002
{
1000
txt.shx
1070
     0
1070
  1025
1002
}
  0
TEXT
  5
7E
330
1F
100
AcDbEntity
  8
0
  6
Continuous
 62
     7
100
AcDbText
 10
117.9786
 20
839.351000254313
 30
0.0
 40
25.000000762939
  1
Notes:
 41
0.7979799662888786
  7
_TCW_TXTSTY_5
 72
     5
 11
217.72609883016
 21
839.351000254313
 31
0.0
100
AcDbText
1001
TCAD
1000
TCW40_TEXT
1002
{
1000
txt.shx
1070
     0
1070
  1025
1002
}
  0
TEXT
  5
80
330
1F
100
AcDbEntity
  8
0
  6
Continuous
 62
     7
100
AcDbText
 10
117.9786
 20
801.850900254313
 30
0.0
 40
25.000000762939
  1
Concrete blocks f'  15 MPa
 41
0.6873631636547305
  7
_TCW_TXTSTY_6
 72
     5
 11
536.239097848193
 21
801.850900254313
 31
0.0
100
AcDbText
1001
TCAD
1000
TCW40_TEXT
1002
{
1000
txt.shx
1070
     0
1070
  1025
1002
}
  0
TEXT
  5
82
330
1F
100
AcDbEntity
  8
0
  6
Continuous
 62
     7
100
AcDbText
 10
388.9782
 20
796.3509
 30
0.0
 40
15.0
  1
uc
 41
0.8383353313286216
  7
_TCW_TXTSTY_7
 72
     5
 11
409.978500049782
 21
796.3509
 31
0.0
100
AcDbText
1001
TCAD
1000
TCW40_TEXT
1002
{
1000
txt.shx
1070
     0
1070
  1025
1002
}
  0
TEXT
  5
84
330
1F
100
AcDbEntity
  8
LAYER4
  6
Continuous
 62
     7
100
AcDbText
 10
117.3805
 20
764.253800254313
 30
0.0
 40
25.000000762939
  1
Mortar M3 (1:5 + methyl cellulose water thickener)
 41
0.6856347382429888
  7
_TCW_TXTSTY_8
 72
     5
 11
894.376090825876
 21
764.253800254313
 31
0.0
100
AcDbText
1001
TCAD
1000
TCW40_TEXT
1002
{
1000
txt.shx
1070
     0
1070
  1025
1002
}
  0
TEXT
  5
86
330
1F
100
AcDbEntity
  8
LAYER4
  6
Continuous
 62
     7
100
AcDbText
 10
115.5785
 20
729.345500254313
 30
0.0
 40
25.000000762939
  1
Concrete grout N20 (minimum cement 300 kg/m , maximum aggregate 10mm)
 41
0.7185828268339045
  7
_TCW_TXTSTY_9
 72
     5
 11
1273.934052206438
 21
729.345500254313
 31
0.0
100
AcDbText
1001
TCAD
1000
TCW40_TEXT
1002
{
1000
txt.shx
1070
     0
1070
  1025
1002
}
  0
TEXT
  5
88
330
1F
100
AcDbEntity
  8
LAYER4
  6
Continuous
 62
     7
100
AcDbText
 10
117.118
 20
691.845400254313
 30
0.0
 40
25.000000762939
  1
Reinforcement shall be held in position by
 41
0.6714583711614481
  7
_TCW_TXTSTY_A
 72
     5
 11
746.442377576511
 21
691.845400254313
 31
0.0
100
AcDbText
1001
TCAD
1000
TCW40_TEXT
1002
{
1000
txt.shx
1070
     0
1070
  1025
1002
}
  0
TEXT
  5
8A
330
1F
100
AcDbEntity
  8
LAYER4
  6
Continuous
 62
     7
100
AcDbText
 10
139.3939
 20
654.345400254313
 30
0.0
 40
25.000000762939
  1
      - steel ligatures; or
 41
0.4407172407304599
  7
_TCW_TXTSTY_B
 72
     5
 11
475.440806312307
 21
654.345400254313
 31
0.0
100
AcDbText
1001
TCAD
1000
TCW40_TEXT
1002
{
1000
txt.shx
1070
     0
1070
  1025
1002
}
  0
TEXT
  5
8C
330
1F
100
AcDbEntity
  8
LAYER4
  6
Continuous
 62
     7
100
AcDbText
 10
117.118
 20
616.845400254313
 30
0.0
 40
25.000000762939
  1
      - steel hangers; or
 41
0.4647797692443144
  7
_TCW_TXTSTY_C
 72
     5
 11
461.868404357911
 21
616.845400254313
 31
0.0
100
AcDbText
1001
TCAD
1000
TCW40_TEXT
1002
{
1000
txt.shx
1070
     0
1070
  1025
1002
}
  0
TEXT
  5
8E
330
1F
100
AcDbEntity
  8
LAYER4
  6
Continuous
 62
     7
100
AcDbText
 10
117.118
 20
579.345300254313
 30
0.0
 40
25.000000762939
  1
      - plastic wheel type support
 41
0.495495145299433
  7
_TCW_TXTSTY_D
 72
     5
 11
587.838402399699
 21
579.345300254313
 31
0.0
100
AcDbText
1001
TCAD
1000
TCW40_TEXT
1002
{
1000
txt.shx
1070
     0
1070
  1025
1002
}
  0
TEXT
  5
8F
330
1F
100
AcDbEntity
  8
LAYER4
  6
Continuous
 62
     7
100
AcDbText
 10
623.098
 20
273.1107
 30
0.0
 40
25.000000762939
  1
1 N16 (minimum cover, c = 20, effective depth, d = 70)
 41
0.6929264504073614
  7
_TCW_TXTSTY_8
 72
     5
 11
1463.098115141077
 21
273.1107
 31
0.0
100
AcDbText
1001
TCAD
1000
TCW40_TEXT
1002
{
1000
txt.shx
1070
     0
1070
  1025
1002
}
  0
TEXT
  5
91
330
1F
100
AcDbEntity
  8
LAYER4
  6
Continuous
 62
     7
100
AcDbText
 10
634.4267
 20
233.599500254313
 30
0.0
 40
25.000000762939
  1
positioned on the webs of concrete blocks and held in position
 41
0.6618975898823262
  7
_TCW_TXTSTY_E
 72
     5
 11
1582.925975247256
 21
233.599500254313
 31
0.0
100
AcDbText
1001
TCAD
1000
TCW40_TEXT
1002
{
1000
txt.shx
1070
     0
1070
  1025
1002
}
  0
TEXT
  5
100
330
1F
100
AcDbEntity
  8
LAYER4
  6
Continuous
 62
     7
100
AcDbText
 10
634.4267
 20
196.099500254313
 30
0.0
 40
25.000000762939
  1
by plastic wheel type supports
 41
0.6650000040018114
  7
_TCW_TXTSTY_E
 72
     5
 11
1099.926717007192
 21
196.099500254313
 31
0.0
100
AcDbText
1001
TCAD
1000
TCW40_TEXT
1002
{
1000
txt.shx
1070
     0
1070
  1025
1002
}
  0
TEXT
  5
101
330
1F
100
AcDbEntity
  8
LAYER4
  6
Continuous
 62
     7
100
AcDbText
 10
628.3168
 20
125.657100254313
 30
0.0
 40
25.000000762939
  1
390 x 190 x 140
 41
0.7622221939277809
  7
_TCW_TXTSTY_5
 72
     5
 11
885.566798301268
 21
125.657100254313
 31
0.0
100
AcDbText
1001
TCAD
1000
TCW40_TEXT
1002
{
1000
txt.shx
1070
     0
1070
  1025
1002
}
  0
TEXT
  5
94
330
1F
100
AcDbEntity
  8
LAYER4
  6
Continuous
 62
     7
100
AcDbText
 10
628.3168
 20
88.157200254313
 30
0.0
 40
25.000000762939
  1
concrete H block (1548) or double U block (1591)
 41
0.6928163865800367
  7
_TCW_TXTSTY_8
 72
     5
 11
1387.816786966451
 21
88.157200254313
 31
0.0
100
AcDbText
1001
TCAD
1000
TCW40_TEXT
1002
{
1000
txt.shx
1070
     0
1070
  1025
1002
}
  0
TEXT
  5
95
330
1F
100
AcDbEntity
  8
LAYER4
  6
Continuous
 62
     7
100
AcDbText
 10
628.3168
 20
15.678200254313
 30
0.0
 40
25.000000762939
  1
390 x 190 x 140
 41
0.762221033476892
  7
_TCW_TXTSTY_5
 72
     5
 11
885.566406649081
 21
15.678200254313
 31
0.0
100
AcDbText
1001
TCAD
1000
TCW40_TEXT
1002
{
1000
txt.shx
1070
     0
1070
  1025
1002
}
  0
TEXT
  5
96
330
1F
100
AcDbEntity
  8
LAYER4
  6
Continuous
 62
     7
100
AcDbText
 10
628.3168
 20
-21.821799745687
 30
0.0
 40
25.000000762939
  1
concrete lintel block (1513)
 41
0.6977014181727424
  7
_TCW_TXTSTY_8
 72
     5
 11
1049.902894796658
 21
-21.821799745687
 31
0.0
100
AcDbText
1001
TCAD
1000
TCW40_TEXT
1002
{
1000
txt.shx
1070
     0
1070
  1025
1002
}
  0
TEXT
  5
102
330
1F
100
AcDbEntity
  8
LAYER4
  6
Continuous
 62
     7
100
AcDbText
 10
632.39
 20
-151.327099745687
 30
0.0
 40
25.000000762939
  1
Held in position by plastic wheel type supports
 41
0.6499636191860462
  7
_TCW_TXTSTY_F
 72
     5
 11
1322.813875550429
 21
-151.327099745687
 31
0.0
100
AcDbText
1001
TCAD
1000
TCW40_TEXT
1002
{
1000
txt.shx
1070
     0
1070
  1025
1002
}
  0
TEXT
  5
103
330
1F
100
AcDbEntity
  8
LAYER4
  6
Continuous
 62
     7
100
AcDbText
 10
626.0256
 20
-111.3068
 30
0.0
 40
25.000000762939
  1
1 N16 (minimum cover, c = 20, effective depth, d = 70)
 41
0.703031941198403
  7
_TCW_TXTSTY_10
 72
     5
 11
1478.276096726369
 21
-111.3068
 31
0.0
100
AcDbText
1001
TCAD
1000
TCW40_TEXT
1002
{
1000
txt.shx
1070
     0
1070
  1025
1002
}
  0
TEXT
  5
104
330
1F
100
AcDbEntity
  8
LAYER4
  6
Continuous
 62
     8
100
AcDbText
 10
42.461237509275
 20
53.700970285775
 30
0.0
 40
25.999999237061
  1
300
 50
89.15631474243648
 41
0.9914163135466624
  7
_TCW_TXTSTY_12
 72
     5
 11
43.345594168494
 21
113.754457566639
 31
0.0
100
AcDbText
1001
TCAD
1000
TCW40_TEXT
1002
{
1000
txt.shx
1070
     0
1070
  1025
1002
}
  0
TEXT
  5
C7
330
1F
100
AcDbEntity
  8
0
  6
Continuous
 62
     7
370
    30
100
AcDbText
 10
-18.50351954107052
 20
-598.5924830288589
 30
0.0
 40
29.99999997575783
  1
Reinforced Concrete Masonry Bond Beam Manafactured By Island Block & Paving
 50
0.1153913904484886
 41
0.614525797014405
  7
_TCW_TXTSTY_4
 72
     5
 11
1308.869508998051
 21
-595.9192036391198
 31
0.0
100
AcDbText
1001
TCAD
1000
TCW40_TEXT
1002
{
1000
txt.shx
1070
     0
1070
  1025
1002
}
  0
ENDSEC
  0
SECTION
  2
OBJECTS
  0
DICTIONARY
  5
C
330
0
100
AcDbDictionary
281
     1
  3
ACAD_COLOR
350
6C
  3
ACAD_GROUP
350
D
  3
ACAD_LAYOUT
350
1A
  3
ACAD_MATERIAL
350
6B
  3
ACAD_MLEADERSTYLE
350
106
  3
ACAD_MLINESTYLE
350
17
  3
ACAD_PLOTSETTINGS
350
19
  3
ACAD_PLOTSTYLENAME
350
E
  3
ACAD_SCALELIST
350
99
  3
ACAD_TABLESTYLE
350
92
  3
AcDbVariableDictionary
350
59
  0
DICTIONARY
  5
11E
330
1F
100
AcDbDictionary
280
     1
281
     1
  0
DICTIONARY
  5
6C
102
{ACAD_REACTORS
330
C
102
}
330
C
100
AcDbDictionary
281
     1
  0
DICTIONARY
  5
D
102
{ACAD_REACTORS
330
C
102
}
330
C
100
AcDbDictionary
281
     1
  0
DICTIONARY
  5
1A
102
{ACAD_REACTORS
330
C
102
}
330
C
100
AcDbDictionary
281
     1
  3
_Paper_Space
350
F8
  3
Model
350
22
  0
DICTIONARY
  5
6B
102
{ACAD_REACTORS
330
C
102
}
330
C
100
AcDbDictionary
281
     1
  0
DICTIONARY
  5
106
102
{ACAD_REACTORS
330
C
102
}
330
C
100
AcDbDictionary
281
     1
  0
DICTIONARY
  5
17
102
{ACAD_REACTORS
330
C
102
}
330
C
100
AcDbDictionary
281
     1
  3
Standard
350
18
  0
DICTIONARY
  5
19
102
{ACAD_REACTORS
330
C
102
}
330
C
100
AcDbDictionary
281
     1
  0
ACDBDICTIONARYWDFLT
  5
E
102
{ACAD_REACTORS
330
C
102
}
330
C
100
AcDbDictionary
281
     1
  3
Normal
350
F
100
AcDbDictionaryWithDefault
340
F
  0
DICTIONARY
  5
99
102
{ACAD_REACTORS
330
C
102
}
330
C
100
AcDbDictionary
281
     1
  3
A0
350
DF
  3
A1
350
E0
  3
A2
350
E1
  3
A3
350
E2
  3
A4
350
E3
  3
A5
350
E4
  3
A6
350
E5
  3
A7
350
E6
  3
A8
350
E7
  3
A9
350
E8
  3
B0
350
E9
  3
B1
350
EA
  3
B2
350
EB
  3
B3
350
EC
  3
B4
350
ED
  3
B5
350
EE
  3
B6
350
EF
  3
B7
350
F0
  3
B8
350
F1
  3
B9
350
F2
  3
C0
350
F3
  3
C1
350
F4
  3
C2
350
F5
  3
C3
350
F6
  3
C4
350
F7
  3
C5
350
BB
  3
C6
350
BC
  3
C7
350
BD
  3
C8
350
BE
  3
C9
350
BF
  3
D0
350
C0
  3
D1
350
C1
  3
D2
350
C2
  0
DICTIONARY
  5
92
102
{ACAD_REACTORS
330
C
102
}
330
C
100
AcDbDictionary
281
     1
  3
Standard
350
11B
  0
DICTIONARY
  5
59
102
{ACAD_REACTORS
330
C
102
}
330
C
100
AcDbDictionary
281
     1
  3
CANNOSCALE
350
107
  3
CTABLESTYLE
350
11C
  3
DIMASSOC
350
C4
  3
HIDETEXT
350
11D
  0
LAYOUT
  5
F8
102
{ACAD_REACTORS
330
1A
102
}
330
1A
100
AcDbPlotSettings
  1

  2
none_device
  4
Sun_Hi-Res_(1280.00_x_1600.00_Pixels)
  6

 40
0.0
 41
0.0
 42
0.0
 43
0.0
 44
1280.0
 45
1600.0
 46
0.0
 47
0.0
 48
0.0
 49
0.0
140
0.0
141
0.0
142
1.0
143
1.0
 70
   544
 72
     2
 73
     0
 74
     0
  7

 75
    16
 76
     0
 77
     2
 78
   300
147
1.0
148
0.0
149
0.0
100
AcDbLayout
  1
_Paper_Space
 70
     0
 71
     1
 10
0.0
 20
0.0
 11
304.8
 21
228.6
 12
0.0
 22
0.0
 32
0.0
 14
0.0
 24
0.0
 34
0.0
 15
0.0
 25
0.0
 35
0.0
146
0.0
 13
0.0
 23
0.0
 33
0.0
 16
1.0
 26
0.0
 36
0.0
 17
0.0
 27
1.0
 37
0.0
 76
     0
330
73
  0
LAYOUT
  5
22
102
{ACAD_REACTORS
330
1A
102
}
330
1A
100
AcDbPlotSettings
  1

  2
none_device
  4
ISO_C5_(229.00_x_162.00_MM)
  6

 40
0.0
 41
0.0
 42
0.0
 43
0.0
 44
229.0
 45
162.0
 46
0.0
 47
0.0
 48
0.0
 49
0.0
140
0.0
141
0.0
142
1.0
143
1.0
 70
 11936
 72
     1
 73
     0
 74
     0
  7

 75
     0
 76
     0
 77
     2
 78
   300
147
0.0703259797304121
148
0.0
149
0.0
100
AcDbLayout
  1
Model
 70
     1
 71
     0
 10
759.4629876236
 20
-29.0803166667
 11
2296.3889628709
 21
1961.4923833333
 12
0.0
 22
0.0
 32
0.0
 14
-18.56393829093168
 24
-661.200000254313
 34
0.0
 15
1582.925975247256
 25
1003.372699491373
 35
0.0
146
0.0
 13
0.0
 23
0.0
 33
0.0
 16
1.0
 26
0.0
 36
0.0
 17
0.0
 27
1.0
 37
0.0
 76
     0
330
1F
331
97
  0
MLINESTYLE
  5
18
102
{ACAD_REACTORS
330
17
102
}
330
17
100
AcDbMlineStyle
  2
Standard
 70
     0
  3

 62
   256
 51
90.0
 52
90.0
 71
     2
 49
0.5
 62
   256
  6
BYLAYER
 49
-0.5
 62
   256
  6
BYLAYER
  0
ACDBPLACEHOLDER
  5
F
102
{ACAD_REACTORS
330
E
102
}
330
E
  0
SCALE
  5
DF
102
{ACAD_REACTORS
330
99
102
}
330
99
100
AcDbScale
 70
     0
300
1:1
140
1.0
141
1.0
290
     1
  0
SCALE
  5
E0
102
{ACAD_REACTORS
330
99
102
}
330
99
100
AcDbScale
 70
     0
300
1:2
140
1.0
141
2.0
290
     0
  0
SCALE
  5
E1
102
{ACAD_REACTORS
330
99
102
}
330
99
100
AcDbScale
 70
     0
300
1:4
140
1.0
141
4.0
290
     0
  0
SCALE
  5
E2
102
{ACAD_REACTORS
330
99
102
}
330
99
100
AcDbScale
 70
     0
300
1:5
140
1.0
141
5.0
290
     0
  0
SCALE
  5
E3
102
{ACAD_REACTORS
330
99
102
}
330
99
100
AcDbScale
 70
     0
300
1:8
140
1.0
141
8.0
290
     0
  0
SCALE
  5
E4
102
{ACAD_REACTORS
330
99
102
}
330
99
100
AcDbScale
 70
     0
300
1:10
140
1.0
141
10.0
290
     0
  0
SCALE
  5
E5
102
{ACAD_REACTORS
330
99
102
}
330
99
100
AcDbScale
 70
     0
300
1:16
140
1.0
141
16.0
290
     0
  0
SCALE
  5
E6
102
{ACAD_REACTORS
330
99
102
}
330
99
100
AcDbScale
 70
     0
300
1:20
140
1.0
141
20.0
290
     0
  0
SCALE
  5
E7
102
{ACAD_REACTORS
330
99
102
}
330
99
100
AcDbScale
 70
     0
300
1:30
140
1.0
141
30.0
290
     0
  0
SCALE
  5
E8
102
{ACAD_REACTORS
330
99
102
}
330
99
100
AcDbScale
 70
     0
300
1:40
140
1.0
141
40.0
290
     0
  0
SCALE
  5
E9
102
{ACAD_REACTORS
330
99
102
}
330
99
100
AcDbScale
 70
     0
300
1:50
140
1.0
141
50.0
290
     0
  0
SCALE
  5
EA
102
{ACAD_REACTORS
330
99
102
}
330
99
100
AcDbScale
 70
     0
300
1:100
140
1.0
141
100.0
290
     0
  0
SCALE
  5
EB
102
{ACAD_REACTORS
330
99
102
}
330
99
100
AcDbScale
 70
     0
300
2:1
140
2.0
141
1.0
290
     0
  0
SCALE
  5
EC
102
{ACAD_REACTORS
330
99
102
}
330
99
100
AcDbScale
 70
     0
300
4:1
140
4.0
141
1.0
290
     0
  0
SCALE
  5
ED
102
{ACAD_REACTORS
330
99
102
}
330
99
100
AcDbScale
 70
     0
300
8:1
140
8.0
141
1.0
290
     0
  0
SCALE
  5
EE
102
{ACAD_REACTORS
330
99
102
}
330
99
100
AcDbScale
 70
     0
300
10:1
140
10.0
141
1.0
290
     0
  0
SCALE
  5
EF
102
{ACAD_REACTORS
330
99
102
}
330
99
100
AcDbScale
 70
     0
300
100:1
140
100.0
141
1.0
290
     0
  0
SCALE
  5
F0
102
{ACAD_REACTORS
330
99
102
}
330
99
100
AcDbScale
 70
     0
300
1/128" = 1'-0"
140
0.0078125
141
12.0
290
     0
  0
SCALE
  5
F1
102
{ACAD_REACTORS
330
99
102
}
330
99
100
AcDbScale
 70
     0
300
1/64" = 1'-0"
140
0.015625
141
12.0
290
     0
  0
SCALE
  5
F2
102
{ACAD_REACTORS
330
99
102
}
330
99
100
AcDbScale
 70
     0
300
1/32" = 1'-0"
140
0.03125
141
12.0
290
     0
  0
SCALE
  5
F3
102
{ACAD_REACTORS
330
99
102
}
330
99
100
AcDbScale
 70
     0
300
1/16" = 1'-0"
140
0.0625
141
12.0
290
     0
  0
SCALE
  5
F4
102
{ACAD_REACTORS
330
99
102
}
330
99
100
AcDbScale
 70
     0
300
3/32" = 1'-0"
140
0.09375
141
12.0
290
     0
  0
SCALE
  5
F5
102
{ACAD_REACTORS
330
99
102
}
330
99
100
AcDbScale
 70
     0
300
1/8" = 1'-0"
140
0.125
141
12.0
290
     0
  0
SCALE
  5
F6
102
{ACAD_REACTORS
330
99
102
}
330
99
100
AcDbScale
 70
     0
300
3/16" = 1'-0"
140
0.1875
141
12.0
290
     0
  0
SCALE
  5
F7
102
{ACAD_REACTORS
330
99
102
}
330
99
100
AcDbScale
 70
     0
300
1/4" = 1'-0"
140
0.25
141
12.0
290
     0
  0
SCALE
  5
BB
102
{ACAD_REACTORS
330
99
102
}
330
99
100
AcDbScale
 70
     0
300
3/8" = 1'-0"
140
0.375
141
12.0
290
     0
  0
SCALE
  5
BC
102
{ACAD_REACTORS
330
99
102
}
330
99
100
AcDbScale
 70
     0
300
1/2" = 1'-0"
140
0.5
141
12.0
290
     0
  0
SCALE
  5
BD
102
{ACAD_REACTORS
330
99
102
}
330
99
100
AcDbScale
 70
     0
300
3/4" = 1'-0"
140
0.75
141
12.0
290
     0
  0
SCALE
  5
BE
102
{ACAD_REACTORS
330
99
102
}
330
99
100
AcDbScale
 70
     0
300
1" = 1'-0"
140
1.0
141
12.0
290
     0
  0
SCALE
  5
BF
102
{ACAD_REACTORS
330
99
102
}
330
99
100
AcDbScale
 70
     0
300
1-1/2" = 1'-0"
140
1.5
141
12.0
290
     0
  0
SCALE
  5
C0
102
{ACAD_REACTORS
330
99
102
}
330
99
100
AcDbScale
 70
     0
300
3" = 1'-0"
140
3.0
141
12.0
290
     0
  0
SCALE
  5
C1
102
{ACAD_REACTORS
330
99
102
}
330
99
100
AcDbScale
 70
     0
300
6" = 1'-0"
140
6.0
141
12.0
290
     0
  0
SCALE
  5
C2
102
{ACAD_REACTORS
330
99
102
}
330
99
100
AcDbScale
 70
     0
300
1'-0" = 1'-0"
140
12.0
141
12.0
290
     0
  0
TABLESTYLE
  5
11B
102
{ACAD_REACTORS
330
92
102
}
330
92
100
AcDbTableStyle
  3
Standard
 70
     0
 71
     0
 40
0.06
 41
0.06
280
     0
281
     0
  7
Standard
140
0.18
170
     2
 62
     0
 63
     7
283
     0
 90
      512
 91
        0
  1

274
    -2
284
     1
 64
     0
275
    -2
285
     1
 65
     0
276
    -2
286
     1
 66
     0
277
    -2
287
     1
 67
     0
278
    -2
288
     1
 68
     0
279
    -2
289
     1
 69
     0
  7
Standard
140
0.25
170
     5
 62
     0
 63
     7
283
     0
 90
      512
 91
        0
  1

274
    -2
284
     1
 64
     0
275
    -2
285
     1
 65
     0
276
    -2
286
     1
 66
     0
277
    -2
287
     1
 67
     0
278
    -2
288
     1
 68
     0
279
    -2
289
     1
 69
     0
  7
Standard
140
0.18
170
     5
 62
     0
 63
     7
283
     0
 90
      512
 91
        0
  1

274
    -2
284
     1
 64
     0
275
    -2
285
     1
 65
     0
276
    -2
286
     1
 66
     0
277
    -2
287
     1
 67
     0
278
    -2
288
     1
 68
     0
279
    -2
289
     1
 69
     0
  0
DICTIONARYVAR
  5
107
102
{ACAD_REACTORS
330
59
102
}
330
59
100
DictionaryVariables
280
     0
  1
1:1
  0
DICTIONARYVAR
  5
11C
102
{ACAD_REACTORS
330
59
102
}
330
59
100
DictionaryVariables
280
     0
  1

  0
DICTIONARYVAR
  5
C4
102
{ACAD_REACTORS
330
59
102
}
330
59
100
DictionaryVariables
280
     0
  1
2
  0
DICTIONARYVAR
  5
11D
102
{ACAD_REACTORS
330
59
102
}
330
59
100
DictionaryVariables
280
     0
  1
1
  0
ENDSEC
  0
EOF
