  0
SECTION
  2
HEADER
  9
$ACADVER
  1
AC1021
  9
$ACADMAINTVER
 70
    25
  9
$DWGCODEPAGE
  3
ANSI_1252
  9
$LASTSAVEDBY
  1
jbassett
  9
$INSBASE
 10
0.0
 20
0.0
 30
0.0
  9
$EXTMIN
 10
11.65540612312715
 20
-575.2
 30
0.0
  9
$EXTMAX
 10
1901.803881250952
 20
966.9789
 30
0.0
  9
$LIMMIN
 10
736.0000108878
 20
-48.1938833333
  9
$LIMMAX
 10
2244.0000326633
 20
1912.1516833333
  9
$ORTHOMODE
 70
     0
  9
$REGENMODE
 70
     1
  9
$FILLMODE
 70
     1
  9
$QTEXTMODE
 70
     0
  9
$MIRRTEXT
 70
     1
  9
$LTSCALE
 40
1.0
  9
$ATTMODE
 70
     1
  9
$TEXTSIZE
 40
0.2
  9
$TRACEWID
 40
0.05
  9
$TEXTSTYLE
  7
Standard
  9
$CLAYER
  8
0
  9
$CELTYPE
  6
Continuous
  9
$CECOLOR
 62
     7
  9
$CELTSCALE
 40
1.0
  9
$DISPSILH
 70
     0
  9
$DIMSCALE
 40
1.0
  9
$DIMASZ
 40
0.18
  9
$DIMEXO
 40
0.0625
  9
$DIMDLI
 40
0.38
  9
$DIMRND
 40
0.0000001
  9
$DIMDLE
 40
0.0
  9
$DIMEXE
 40
0.18
  9
$DIMTP
 40
0.0
  9
$DIMTM
 40
0.0
  9
$DIMTXT
 40
0.18
  9
$DIMCEN
 40
0.09
  9
$DIMTSZ
 40
0.0
  9
$DIMTOL
 70
     0
  9
$DIMLIM
 70
     0
  9
$DIMTIH
 70
     1
  9
$DIMTOH
 70
     1
  9
$DIMSE1
 70
     0
  9
$DIMSE2
 70
     0
  9
$DIMTAD
 70
     0
  9
$DIMZIN
 70
     0
  9
$DIMBLK
  1

  9
$DIMASO
 70
     0
  9
$DIMSHO
 70
     0
  9
$DIMPOST
  1
<>
  9
$DIMAPOST
  1
<>
  9
$DIMALT
 70
     0
  9
$DIMALTD
 70
     2
  9
$DIMALTF
 40
25.4
  9
$DIMLFAC
 40
1.0
  9
$DIMTOFL
 70
     0
  9
$DIMTVP
 40
0.0
  9
$DIMTIX
 70
     0
  9
$DIMSOXD
 70
     0
  9
$DIMSAH
 70
     0
  9
$DIMBLK1
  1

  9
$DIMBLK2
  1

  9
$DIMSTYLE
  2
Standard
  9
$DIMCLRD
 70
     0
  9
$DIMCLRE
 70
     0
  9
$DIMCLRT
 70
     0
  9
$DIMTFAC
 40
1.0
  9
$DIMGAP
 40
0.09
  9
$DIMJUST
 70
     0
  9
$DIMSD1
 70
     0
  9
$DIMSD2
 70
     0
  9
$DIMTOLJ
 70
     1
  9
$DIMTZIN
 70
     0
  9
$DIMALTZ
 70
     0
  9
$DIMALTTZ
 70
     0
  9
$DIMUPT
 70
     0
  9
$DIMDEC
 70
     4
  9
$DIMTDEC
 70
     4
  9
$DIMALTU
 70
     2
  9
$DIMALTTD
 70
     2
  9
$DIMTXSTY
  7
Standard
  9
$DIMAUNIT
 70
     0
  9
$DIMADEC
 70
     4
  9
$DIMALTRND
 40
0.0
  9
$DIMAZIN
 70
     0
  9
$DIMDSEP
 70
     0
  9
$DIMATFIT
 70
     3
  9
$DIMFRAC
 70
     0
  9
$DIMLDRBLK
  1

  9
$DIMLUNIT
 70
     2
  9
$DIMLWD
 70
     0
  9
$DIMLWE
 70
     0
  9
$DIMTMOVE
 70
     0
  9
$DIMFXL
 40
1.0
  9
$DIMFXLON
 70
     0
  9
$DIMJOGANG
 40
0.7853981633974483
  9
$DIMTFILL
 70
     0
  9
$DIMTFILLCLR
 70
     0
  9
$DIMARCSYM
 70
     0
  9
$DIMLTYPE
  6

  9
$DIMLTEX1
  6

  9
$DIMLTEX2
  6

  9
$LUNITS
 70
     2
  9
$LUPREC
 70
     4
  9
$SKETCHINC
 40
0.1
  9
$FILLETRAD
 40
0.0
  9
$AUNITS
 70
     0
  9
$AUPREC
 70
     0
  9
$MENU
  1
.
  9
$ELEVATION
 40
0.0
  9
$PELEVATION
 40
0.0
  9
$THICKNESS
 40
0.0
  9
$LIMCHECK
 70
     0
  9
$CHAMFERA
 40
0.0
  9
$CHAMFERB
 40
0.0
  9
$CHAMFERC
 40
0.0
  9
$CHAMFERD
 40
0.0
  9
$SKPOLY
 70
     0
  9
$TDCREATE
 40
2453354.133792488
  9
$TDUCREATE
 40
2453353.717125822
  9
$TDUPDATE
 40
2447893.459039364
  9
$TDUUPDATE
 40
2447893.042372697
  9
$TDINDWG
 40
0.0435301042
  9
$TDUSRTIMER
 40
0.0435185301
  9
$USRTIMER
 70
     1
  9
$ANGBASE
 50
0.0
  9
$ANGDIR
 70
     0
  9
$PDMODE
 70
     0
  9
$PDSIZE
 40
0.0
  9
$PLINEWID
 40
0.0
  9
$SPLFRAME
 70
     0
  9
$SPLINETYPE
 70
     6
  9
$SPLINESEGS
 70
     8
  9
$HANDSEED
  5
106
  9
$SURFTAB1
 70
     6
  9
$SURFTAB2
 70
     6
  9
$SURFTYPE
 70
     6
  9
$SURFU
 70
     6
  9
$SURFV
 70
     6
  9
$UCSBASE
  2

  9
$UCSNAME
  2

  9
$UCSORG
 10
0.0
 20
0.0
 30
0.0
  9
$UCSXDIR
 10
1.0
 20
0.0
 30
0.0
  9
$UCSYDIR
 10
0.0
 20
1.0
 30
0.0
  9
$UCSORTHOREF
  2

  9
$UCSORTHOVIEW
 70
     0
  9
$UCSORGTOP
 10
0.0
 20
0.0
 30
0.0
  9
$UCSORGBOTTOM
 10
0.0
 20
0.0
 30
0.0
  9
$UCSORGLEFT
 10
0.0
 20
0.0
 30
0.0
  9
$UCSORGRIGHT
 10
0.0
 20
0.0
 30
0.0
  9
$UCSORGFRONT
 10
0.0
 20
0.0
 30
0.0
  9
$UCSORGBACK
 10
0.0
 20
0.0
 30
0.0
  9
$PUCSBASE
  2

  9
$PUCSNAME
  2

  9
$PUCSORG
 10
0.0
 20
0.0
 30
0.0
  9
$PUCSXDIR
 10
1.0
 20
0.0
 30
0.0
  9
$PUCSYDIR
 10
0.0
 20
1.0
 30
0.0
  9
$PUCSORTHOREF
  2

  9
$PUCSORTHOVIEW
 70
     0
  9
$PUCSORGTOP
 10
0.0
 20
0.0
 30
0.0
  9
$PUCSORGBOTTOM
 10
0.0
 20
0.0
 30
0.0
  9
$PUCSORGLEFT
 10
0.0
 20
0.0
 30
0.0
  9
$PUCSORGRIGHT
 10
0.0
 20
0.0
 30
0.0
  9
$PUCSORGFRONT
 10
0.0
 20
0.0
 30
0.0
  9
$PUCSORGBACK
 10
0.0
 20
0.0
 30
0.0
  9
$USERI1
 70
     0
  9
$USERI2
 70
     0
  9
$USERI3
 70
     0
  9
$USERI4
 70
     0
  9
$USERI5
 70
     0
  9
$USERR1
 40
0.0
  9
$USERR2
 40
0.0
  9
$USERR3
 40
0.0
  9
$USERR4
 40
0.0
  9
$USERR5
 40
0.0
  9
$WORLDVIEW
 70
     1
  9
$SHADEDGE
 70
     3
  9
$SHADEDIF
 70
    70
  9
$TILEMODE
 70
     1
  9
$MAXACTVP
 70
    16
  9
$PINSBASE
 10
0.0
 20
0.0
 30
0.0
  9
$PLIMCHECK
 70
     0
  9
$PEXTMIN
 10
0.0
 20
0.0
 30
0.0
  9
$PEXTMAX
 10
0.0
 20
0.0
 30
0.0
  9
$PLIMMIN
 10
0.0
 20
0.0
  9
$PLIMMAX
 10
12.0
 20
9.0
  9
$UNITMODE
 70
     0
  9
$VISRETAIN
 70
     0
  9
$PLINEGEN
 70
     1
  9
$PSLTSCALE
 70
     0
  9
$TREEDEPTH
 70
  3020
  9
$CMLSTYLE
  2
Standard
  9
$CMLJUST
 70
     0
  9
$CMLSCALE
 40
1.0
  9
$PROXYGRAPHICS
 70
     0
  9
$MEASUREMENT
 70
     0
  9
$CELWEIGHT
370
     0
  9
$ENDCAPS
280
     0
  9
$JOINSTYLE
280
     0
  9
$LWDISPLAY
290
     0
  9
$INSUNITS
 70
     0
  9
$HYPERLINKBASE
  1

  9
$STYLESHEET
  1

  9
$XEDIT
290
     0
  9
$CEPSNTYPE
380
     0
  9
$PSTYLEMODE
290
     1
  9
$FINGERPRINTGUID
  2

  9
$VERSIONGUID
  2

  9
$EXTNAMES
290
     1
  9
$PSVPSCALE
 40
0.0
  9
$OLESTARTUP
290
     0
  9
$SORTENTS
280
   127
  9
$INDEXCTL
280
     0
  9
$HIDETEXT
280
     1
  9
$XCLIPFRAME
290
     0
  9
$HALOGAP
280
     0
  9
$OBSCOLOR
 70
   257
  9
$OBSLTYPE
280
     0
  9
$INTERSECTIONDISPLAY
280
     0
  9
$INTERSECTIONCOLOR
 70
   257
  9
$DIMASSOC
280
     2
  9
$PROJECTNAME
  1

  9
$CAMERADISPLAY
290
     0
  9
$LENSLENGTH
 40
50.0
  9
$CAMERAHEIGHT
 40
0.0
  9
$STEPSPERSEC
 40
2.0
  9
$STEPSIZE
 40
6.0
  9
$3DDWFPREC
 40
2.0
  9
$PSOLWIDTH
 40
0.25
  9
$PSOLHEIGHT
 40
4.0
  9
$LOFTANG1
 40
1.570796326794897
  9
$LOFTANG2
 40
1.570796326794897
  9
$LOFTMAG1
 40
0.0
  9
$LOFTMAG2
 40
0.0
  9
$LOFTPARAM
 70
     7
  9
$LOFTNORMALS
280
     1
  9
$LATITUDE
 40
37.795
  9
$LONGITUDE
 40
-122.394
  9
$NORTHDIRECTION
 40
0.0
  9
$TIMEZONE
 70
 -8000
  9
$LIGHTGLYPHDISPLAY
280
     1
  9
$TILEMODELIGHTSYNCH
280
     1
  9
$SOLIDHIST
280
     1
  9
$SHOWHIST
280
     1
  9
$DWFFRAME
280
     2
  9
$DGNFRAME
280
     2
  9
$REALWORLDSCALE
290
     1
  9
$INTERFERECOLOR
 62
   256
  9
$CSHADOW
280
     0
  9
$SHADOWPLANELOCATION
 40
0.0
  0
ENDSEC
  0
SECTION
  2
CLASSES
  0
CLASS
  1
ACDBDICTIONARYWDFLT
  2
AcDbDictionaryWithDefault
  3
ObjectDBX Classes
 90
        0
 91
        4
280
     0
281
     0
  0
CLASS
  1
ACDBPLACEHOLDER
  2
AcDbPlaceHolder
  3
ObjectDBX Classes
 90
        0
 91
        1
280
     0
281
     0
  0
CLASS
  1
LAYOUT
  2
AcDbLayout
  3
ObjectDBX Classes
 90
        0
 91
        1
280
     0
281
     0
  0
CLASS
  1
DICTIONARYVAR
  2
AcDbDictionaryVar
  3
ObjectDBX Classes
 90
        0
 91
        4
280
     0
281
     0
  0
CLASS
  1
TABLESTYLE
  2
AcDbTableStyle
  3
ObjectDBX Classes
 90
     4095
 91
        4
280
     0
281
     0
  0
CLASS
  1
SCALE
  2
AcDbScale
  3
ObjectDBX Classes
 90
     1153
 91
        4
280
     0
281
     0
  0
ENDSEC
  0
SECTION
  2
TABLES
  0
TABLE
  2
VPORT
  5
8
330
0
100
AcDbSymbolTable
 70
     2
  0
VPORT
  5
97
330
8
100
AcDbSymbolTableRecord
100
AcDbViewportTableRecord
  2
*ACTIVE
 70
     0
 10
0.0
 20
0.0
 11
1.0
 21
1.0
 12
858.1645461587856
 22
932.2113777790569
 13
0.0
 23
0.0
 14
0.5
 24
0.5
 15
0.5
 25
0.5
 16
0.0
 26
0.0
 36
1.0
 17
-79.83683220944
 27
-736.321927779057
 37
0.0
 40
1526.666216369352
 41
1.85119047619
 42
50.0
 43
0.0
 44
0.0
 50
0.0
 51
0.0
 71
    16
 72
   100
 73
     1
 74
     1
 75
     0
 76
     0
 77
     0
 78
     0
281
     0
 65
     0
110
0.0
120
0.0
130
0.0
111
1.0
121
0.0
131
0.0
112
0.0
122
1.0
132
0.0
 79
     0
146
0.0
 60
     3
 61
     5
292
     1
282
     1
141
0.0
142
0.0
 63
   256
  0
ENDTAB
  0
TABLE
  2
LTYPE
  5
5
330
0
100
AcDbSymbolTable
 70
    16
  0
LTYPE
  5
14
330
5
100
AcDbSymbolTableRecord
100
AcDbLinetypeTableRecord
  2
ByBlock
 70
     0
  3

 72
    65
 73
     0
 40
0.0
  0
LTYPE
  5
15
330
5
100
AcDbSymbolTableRecord
100
AcDbLinetypeTableRecord
  2
ByLayer
 70
     0
  3

 72
    65
 73
     0
 40
0.0
  0
LTYPE
  5
16
330
5
100
AcDbSymbolTableRecord
100
AcDbLinetypeTableRecord
  2
Continuous
 70
     0
  3
Solid line
 72
    65
 73
     0
 40
0.0
  0
LTYPE
  5
CC
330
5
100
AcDbSymbolTableRecord
100
AcDbLinetypeTableRecord
  2
BORDER
 70
     0
  3
BORDER
 72
    65
 73
     6
 40
1.75
 49
0.5
 74
     4
 75
     0
340
0
 46
1.0
 50
0.0
 44
0.0
 45
0.0
 49
-0.25
 74
     4
 75
     0
340
0
 46
1.0
 50
0.0
 44
0.0
 45
0.0
 49
0.5
 74
     4
 75
     0
340
0
 46
1.0
 50
0.0
 44
0.0
 45
0.0
 49
-0.25
 74
     4
 75
     0
340
0
 46
1.0
 50
0.0
 44
0.0
 45
0.0
 49
0.0
 74
     4
 75
     0
340
0
 46
1.0
 50
0.0
 44
0.0
 45
0.0
 49
-0.25
 74
     4
 75
     0
340
0
 46
1.0
 50
0.0
 44
0.0
 45
0.0
  0
LTYPE
  5
CD
330
5
100
AcDbSymbolTableRecord
100
AcDbLinetypeTableRecord
  2
CENTER
 70
     0
  3
CENTER
 72
    65
 73
     4
 40
2.0
 49
1.25
 74
     4
 75
     0
340
0
 46
1.0
 50
0.0
 44
0.0
 45
0.0
 49
-0.25
 74
     4
 75
     0
340
0
 46
1.0
 50
0.0
 44
0.0
 45
0.0
 49
0.25
 74
     4
 75
     0
340
0
 46
1.0
 50
0.0
 44
0.0
 45
0.0
 49
-0.25
 74
     4
 75
     0
340
0
 46
1.0
 50
0.0
 44
0.0
 45
0.0
  0
LTYPE
  5
CE
330
5
100
AcDbSymbolTableRecord
100
AcDbLinetypeTableRecord
  2
DASHDOT
 70
     0
  3
DASHDOT
 72
    65
 73
     4
 40
1.0
 49
0.5
 74
     4
 75
     0
340
0
 46
1.0
 50
0.0
 44
0.0
 45
0.0
 49
-0.25
 74
     4
 75
     0
340
0
 46
1.0
 50
0.0
 44
0.0
 45
0.0
 49
0.0
 74
     4
 75
     0
340
0
 46
1.0
 50
0.0
 44
0.0
 45
0.0
 49
-0.25
 74
     4
 75
     0
340
0
 46
1.0
 50
0.0
 44
0.0
 45
0.0
  0
LTYPE
  5
CF
330
5
100
AcDbSymbolTableRecord
100
AcDbLinetypeTableRecord
  2
DASHED
 70
     0
  3
DASHED
 72
    65
 73
     2
 40
0.75
 49
0.5
 74
     4
 75
     0
340
0
 46
1.0
 50
0.0
 44
0.0
 45
0.0
 49
-0.25
 74
     4
 75
     0
340
0
 46
1.0
 50
0.0
 44
0.0
 45
0.0
  0
LTYPE
  5
D0
330
5
100
AcDbSymbolTableRecord
100
AcDbLinetypeTableRecord
  2
DIVIDE
 70
     0
  3
DIVIDE
 72
    65
 73
     6
 40
1.25
 49
0.5
 74
     4
 75
     0
340
0
 46
1.0
 50
0.0
 44
0.0
 45
0.0
 49
-0.25
 74
     4
 75
     0
340
0
 46
1.0
 50
0.0
 44
0.0
 45
0.0
 49
0.0
 74
     4
 75
     0
340
0
 46
1.0
 50
0.0
 44
0.0
 45
0.0
 49
-0.25
 74
     4
 75
     0
340
0
 46
1.0
 50
0.0
 44
0.0
 45
0.0
 49
0.0
 74
     4
 75
     0
340
0
 46
1.0
 50
0.0
 44
0.0
 45
0.0
 49
-0.25
 74
     4
 75
     0
340
0
 46
1.0
 50
0.0
 44
0.0
 45
0.0
  0
LTYPE
  5
D1
330
5
100
AcDbSymbolTableRecord
100
AcDbLinetypeTableRecord
  2
DOT
 70
     0
  3
DOT
 72
    65
 73
     2
 40
0.25
 49
0.0
 74
     4
 75
     0
340
0
 46
1.0
 50
0.0
 44
0.0
 45
0.0
 49
-0.25
 74
     4
 75
     0
340
0
 46
1.0
 50
0.0
 44
0.0
 45
0.0
  0
LTYPE
  5
D2
330
5
100
AcDbSymbolTableRecord
100
AcDbLinetypeTableRecord
  2
HIDDEN
 70
     0
  3
HIDDEN
 72
    65
 73
     2
 40
0.375
 49
0.25
 74
     4
 75
     0
340
0
 46
1.0
 50
0.0
 44
0.0
 45
0.0
 49
-0.125
 74
     4
 75
     0
340
0
 46
1.0
 50
0.0
 44
0.0
 45
0.0
  0
LTYPE
  5
D3
330
5
100
AcDbSymbolTableRecord
100
AcDbLinetypeTableRecord
  2
PHANTOM
 70
     0
  3
PHANTOM
 72
    65
 73
     6
 40
2.5
 49
1.25
 74
     4
 75
     0
340
0
 46
1.0
 50
0.0
 44
0.0
 45
0.0
 49
-0.25
 74
     4
 75
     0
340
0
 46
1.0
 50
0.0
 44
0.0
 45
0.0
 49
0.25
 74
     4
 75
     0
340
0
 46
1.0
 50
0.0
 44
0.0
 45
0.0
 49
-0.25
 74
     4
 75
     0
340
0
 46
1.0
 50
0.0
 44
0.0
 45
0.0
 49
0.25
 74
     4
 75
     0
340
0
 46
1.0
 50
0.0
 44
0.0
 45
0.0
 49
-0.25
 74
     4
 75
     0
340
0
 46
1.0
 50
0.0
 44
0.0
 45
0.0
  0
LTYPE
  5
D4
330
5
100
AcDbSymbolTableRecord
100
AcDbLinetypeTableRecord
  2
$INVISIBLE
 70
     0
  3
$INVISIBLE
 72
    65
 73
     2
 40
200.0
 49
-100.0
 74
     4
 75
     0
340
0
 46
1.0
 50
0.0
 44
0.0
 45
0.0
 49
-100.0
 74
     4
 75
     0
340
0
 46
1.0
 50
0.0
 44
0.0
 45
0.0
  0
LTYPE
  5
D5
330
5
100
AcDbSymbolTableRecord
100
AcDbLinetypeTableRecord
  2
DCTYPE1
 70
     0
  3
DCTYPE1
 72
    65
 73
     8
 40
2.0
 49
0.5
 74
     4
 75
     0
340
0
 46
1.0
 50
0.0
 44
0.0
 45
0.0
 49
-0.25
 74
     4
 75
     0
340
0
 46
1.0
 50
0.0
 44
0.0
 45
0.0
 49
0.125
 74
     4
 75
     0
340
0
 46
1.0
 50
0.0
 44
0.0
 45
0.0
 49
-0.25
 74
     4
 75
     0
340
0
 46
1.0
 50
0.0
 44
0.0
 45
0.0
 49
0.25
 74
     4
 75
     0
340
0
 46
1.0
 50
0.0
 44
0.0
 45
0.0
 49
-0.25
 74
     4
 75
     0
340
0
 46
1.0
 50
0.0
 44
0.0
 45
0.0
 49
0.125
 74
     4
 75
     0
340
0
 46
1.0
 50
0.0
 44
0.0
 45
0.0
 49
-0.25
 74
     4
 75
     0
340
0
 46
1.0
 50
0.0
 44
0.0
 45
0.0
  0
LTYPE
  5
D6
330
5
100
AcDbSymbolTableRecord
100
AcDbLinetypeTableRecord
  2
DCTYPE2
 70
     0
  3
DCTYPE2
 72
    65
 73
     6
 40
2.05
 49
1.0
 74
     4
 75
     0
340
0
 46
1.0
 50
0.0
 44
0.0
 45
0.0
 49
-0.3
 74
     4
 75
     0
340
0
 46
1.0
 50
0.0
 44
0.0
 45
0.0
 49
0.15
 74
     4
 75
     0
340
0
 46
1.0
 50
0.0
 44
0.0
 45
0.0
 49
-0.15
 74
     4
 75
     0
340
0
 46
1.0
 50
0.0
 44
0.0
 45
0.0
 49
0.15
 74
     4
 75
     0
340
0
 46
1.0
 50
0.0
 44
0.0
 45
0.0
 49
-0.3
 74
     4
 75
     0
340
0
 46
1.0
 50
0.0
 44
0.0
 45
0.0
  0
LTYPE
  5
D7
330
5
100
AcDbSymbolTableRecord
100
AcDbLinetypeTableRecord
  2
DCTYPE3
 70
     0
  3
DCTYPE3
 72
    65
 73
     6
 40
2.5
 49
0.8
 74
     4
 75
     0
340
0
 46
1.0
 50
0.0
 44
0.0
 45
0.0
 49
-0.2
 74
     4
 75
     0
340
0
 46
1.0
 50
0.0
 44
0.0
 45
0.0
 49
0.8
 74
     4
 75
     0
340
0
 46
1.0
 50
0.0
 44
0.0
 45
0.0
 49
-0.2
 74
     4
 75
     0
340
0
 46
1.0
 50
0.0
 44
0.0
 45
0.0
 49
0.3
 74
     4
 75
     0
340
0
 46
1.0
 50
0.0
 44
0.0
 45
0.0
 49
-0.2
 74
     4
 75
     0
340
0
 46
1.0
 50
0.0
 44
0.0
 45
0.0
  0
LTYPE
  5
D8
330
5
100
AcDbSymbolTableRecord
100
AcDbLinetypeTableRecord
  2
DCTYPE4
 70
     0
  3
DCTYPE4
 72
    65
 73
    10
 40
3.969999999999999
 49
1.75
 74
     4
 75
     0
340
0
 46
1.0
 50
0.0
 44
0.0
 45
0.0
 49
-0.3
 74
     4
 75
     0
340
0
 46
1.0
 50
0.0
 44
0.0
 45
0.0
 49
0.3
 74
     4
 75
     0
340
0
 46
1.0
 50
0.0
 44
0.0
 45
0.0
 49
-0.3
 74
     4
 75
     0
340
0
 46
1.0
 50
0.0
 44
0.0
 45
0.0
 49
0.06
 74
     4
 75
     0
340
0
 46
1.0
 50
0.0
 44
0.0
 45
0.0
 49
-0.3
 74
     4
 75
     0
340
0
 46
1.0
 50
0.0
 44
0.0
 45
0.0
 49
0.06
 74
     4
 75
     0
340
0
 46
1.0
 50
0.0
 44
0.0
 45
0.0
 49
-0.3
 74
     4
 75
     0
340
0
 46
1.0
 50
0.0
 44
0.0
 45
0.0
 49
0.3
 74
     4
 75
     0
340
0
 46
1.0
 50
0.0
 44
0.0
 45
0.0
 49
-0.3
 74
     4
 75
     0
340
0
 46
1.0
 50
0.0
 44
0.0
 45
0.0
  0
LTYPE
  5
D9
330
5
100
AcDbSymbolTableRecord
100
AcDbLinetypeTableRecord
  2
$SNAPEXT
 70
     0
  3
$SNAPEXT
 72
    65
 73
     2
 40
0.04
 49
0.02
 74
     4
 75
     0
340
0
 46
1.0
 50
0.0
 44
0.0
 45
0.0
 49
-0.02
 74
     4
 75
     0
340
0
 46
1.0
 50
0.0
 44
0.0
 45
0.0
  0
LTYPE
  5
DA
330
5
100
AcDbSymbolTableRecord
100
AcDbLinetypeTableRecord
  2
$AUXILIARY
 70
     0
  3
$AUXILIARY
 72
    65
 73
     2
 40
0.1
 49
0.05
 74
     4
 75
     0
340
0
 46
1.0
 50
0.0
 44
0.0
 45
0.0
 49
-0.05
 74
     4
 75
     0
340
0
 46
1.0
 50
0.0
 44
0.0
 45
0.0
  0
ENDTAB
  0
TABLE
  2
LAYER
  5
2
330
0
100
AcDbSymbolTable
 70
     4
  0
LAYER
  5
10
330
2
100
AcDbSymbolTableRecord
100
AcDbLayerTableRecord
  2
0
 70
     0
 62
     8
  6
Continuous
370
     0
390
F
347
0
1001
TCAD
1000
TCW_LAYER_ORDER
1002
{
1071
        0
1002
}
  0
LAYER
  5
33
330
2
100
AcDbSymbolTableRecord
100
AcDbLayerTableRecord
  2
LAYER2
 70
     0
 62
     8
  6
Continuous
370
     0
390
F
347
0
1001
TCAD
1000
TCW_LAYER_ORDER
1002
{
1071
        0
1002
}
  0
LAYER
  5
34
330
2
100
AcDbSymbolTableRecord
100
AcDbLayerTableRecord
  2
LAYER3
 70
     0
 62
     8
  6
Continuous
370
     0
390
F
347
0
1001
TCAD
1000
TCW_LAYER_ORDER
1002
{
1071
        0
1002
}
  0
LAYER
  5
35
330
2
100
AcDbSymbolTableRecord
100
AcDbLayerTableRecord
  2
LAYER4
 70
     0
 62
     7
  6
Continuous
370
     0
390
F
347
0
1001
TCAD
1000
TCW_LAYER_ORDER
1002
{
1071
        0
1002
}
  0
ENDTAB
  0
TABLE
  2
STYLE
  5
3
330
0
100
AcDbSymbolTable
 70
    17
  0
STYLE
  5
11
330
3
100
AcDbSymbolTableRecord
100
AcDbTextStyleTableRecord
  2
Standard
 70
     0
 40
0.0
 41
1.0
 50
0.0
 71
     0
 42
0.00000006
  3
TXT.SHX
  4

  0
STYLE
  5
37
330
3
100
AcDbSymbolTableRecord
100
AcDbTextStyleTableRecord
  2
_TCW_TXTSTY_1
 70
     0
 40
0.0
 41
0.85
 50
0.0
 71
     0
 42
24.0
  3
TXT.SHX
  4

  0
STYLE
  5
39
330
3
100
AcDbSymbolTableRecord
100
AcDbTextStyleTableRecord
  2
_TCW_TXTSTY_2
 70
     0
 40
0.0
 41
0.65
 50
0.0
 71
     0
 42
25.0
  3
TXT.SHX
  4

  0
STYLE
  5
3B
330
3
100
AcDbSymbolTableRecord
100
AcDbTextStyleTableRecord
  2
_TCW_TXTSTY_3
 70
     0
 40
0.0
 41
0.71
 50
0.0
 71
     0
 42
25.0
  3
TXT.SHX
  4

  0
STYLE
  5
3D
330
3
100
AcDbSymbolTableRecord
100
AcDbTextStyleTableRecord
  2
_TCW_TXTSTY_4
 70
     0
 40
0.0
 41
0.64
 50
0.0
 71
     0
 42
26.0
  3
TXT.SHX
  4

  0
STYLE
  5
43
330
3
100
AcDbSymbolTableRecord
100
AcDbTextStyleTableRecord
  2
_TCW_TXTSTY_5
 70
     0
 40
0.0
 41
0.68
 50
0.0
 71
     0
 42
26.0
  3
TXT.SHX
  4

  0
STYLE
  5
4B
330
3
100
AcDbSymbolTableRecord
100
AcDbTextStyleTableRecord
  2
_TCW_TXTSTY_6
 70
     0
 40
0.0
 41
0.63
 50
0.0
 71
     0
 42
26.0
  3
TXT.SHX
  4

  0
STYLE
  5
C8
330
3
100
AcDbSymbolTableRecord
100
AcDbTextStyleTableRecord
  2
_TCW_TXTSTY_7
 70
     0
 40
0.0
 41
0.92
 50
0.0
 71
     0
 42
24.0
  3
TXT.SHX
  4

  0
STYLE
  5
7E
330
3
100
AcDbSymbolTableRecord
100
AcDbTextStyleTableRecord
  2
_TCW_TXTSTY_8
 70
     0
 40
0.0
 41
0.77
 50
0.0
 71
     0
 42
26.0
  3
TXT.SHX
  4

  0
STYLE
  5
87
330
3
100
AcDbSymbolTableRecord
100
AcDbTextStyleTableRecord
  2
_TCW_TXTSTY_9
 70
     0
 40
0.0
 41
0.69
 50
0.0
 71
     0
 42
22.5
  3
TXT.SHX
  4

  0
STYLE
  5
8C
330
3
100
AcDbSymbolTableRecord
100
AcDbTextStyleTableRecord
  2
_TCW_TXTSTY_A
 70
     0
 40
0.0
 41
0.56
 50
0.0
 71
     0
 42
22.5
  3
TXT.SHX
  4

  0
STYLE
  5
8E
330
3
100
AcDbSymbolTableRecord
100
AcDbTextStyleTableRecord
  2
_TCW_TXTSTY_B
 70
     0
 40
0.0
 41
0.55
 50
0.0
 71
     0
 42
22.5
  3
TXT.SHX
  4

  0
STYLE
  5
90
330
3
100
AcDbSymbolTableRecord
100
AcDbTextStyleTableRecord
  2
_TCW_TXTSTY_C
 70
     0
 40
0.0
 41
0.58
 50
0.0
 71
     0
 42
22.5
  3
TXT.SHX
  4

  0
STYLE
  5
C9
330
3
100
AcDbSymbolTableRecord
100
AcDbTextStyleTableRecord
  2
_TCW_TXTSTY_D
 70
     0
 40
0.0
 41
0.66
 50
0.0
 71
     0
 42
23.25
  3
TXT.SHX
  4

  0
STYLE
  5
94
330
3
100
AcDbSymbolTableRecord
100
AcDbTextStyleTableRecord
  2
_TCW_TXTSTY_E
 70
     0
 40
0.0
 41
0.5
 50
0.0
 71
     0
 42
10.5
  3
TXT.SHX
  4

  0
STYLE
  5
CA
330
3
100
AcDbSymbolTableRecord
100
AcDbTextStyleTableRecord
  2
_TCW_TXTSTY_F
 70
     0
 40
0.0
 41
0.76
 50
0.0
 71
     0
 42
25.0
  3
TXT.SHX
  4

  0
STYLE
  5
CB
330
3
100
AcDbSymbolTableRecord
100
AcDbTextStyleTableRecord
  2
_TCW_TXTSTY_10
 70
     0
 40
0.0
 41
0.86
 50
0.0
 71
     0
 42
24.0
  3
TXT.SHX
  4

  0
ENDTAB
  0
TABLE
  2
VIEW
  5
6
330
0
100
AcDbSymbolTable
 70
     1
  0
VIEW
  5
36
330
6
100
AcDbSymbolTableRecord
100
AcDbViewTableRecord
  2
View_0
 70
     0
 40
8.267716535433
 10
5.846456692913
 20
4.133858267717
 41
11.692913385827
 11
0.0
 21
0.0
 31
1.0
 12
0.0
 22
0.0
 32
0.0
 42
45.247172312671
 43
0.0
 44
0.0
 50
0.0
 71
     0
281
     0
 72
     0
 73
     0
  0
ENDTAB
  0
TABLE
  2
UCS
  5
7
330
0
100
AcDbSymbolTable
 70
     0
  0
ENDTAB
  0
TABLE
  2
APPID
  5
9
330
0
100
AcDbSymbolTable
 70
     2
  0
APPID
  5
12
330
9
100
AcDbSymbolTableRecord
100
AcDbRegAppTableRecord
  2
ACAD
 70
     0
  0
APPID
  5
C7
330
9
100
AcDbSymbolTableRecord
100
AcDbRegAppTableRecord
  2
TCAD
 70
     0
  0
ENDTAB
  0
TABLE
  2
DIMSTYLE
  5
A
330
0
100
AcDbSymbolTable
 70
     1
100
AcDbDimStyleTable
  0
DIMSTYLE
105
27
330
A
100
AcDbSymbolTableRecord
100
AcDbDimStyleTableRecord
  2
Standard
 70
     0
  3
<>
  4
<>
 45
0.0000001
148
0.0000001
179
     4
340
11
  0
ENDTAB
  0
TABLE
  2
BLOCK_RECORD
  5
1
330
0
100
AcDbSymbolTable
 70
     0
  0
BLOCK_RECORD
  5
1F
102
{ACAD_XDICTIONARY
360
103
102
}
330
1
100
AcDbSymbolTableRecord
100
AcDbBlockTableRecord
  2
*Model_Space
340
22
 70
     0
280
     1
281
     0
  0
BLOCK_RECORD
  5
73
330
1
100
AcDbSymbolTableRecord
100
AcDbBlockTableRecord
  2
*Paper_Space
340
F6
 70
     0
280
     1
281
     0
  0
ENDTAB
  0
ENDSEC
  0
SECTION
  2
BLOCKS
  0
BLOCK
  5
20
330
1F
100
AcDbEntity
  8
0
100
AcDbBlockBegin
  2
*Model_Space
 70
     0
 10
0.0
 20
0.0
 30
0.0
  3
*Model_Space
  1

  0
ENDBLK
  5
21
330
1F
100
AcDbEntity
  8
0
100
AcDbBlockEnd
  0
BLOCK
  5
75
330
73
100
AcDbEntity
 67
     1
  8
0
100
AcDbBlockBegin
  2
*Paper_Space
 70
     0
 10
0.0
 20
0.0
 30
0.0
  3
*Paper_Space
  1

  0
ENDBLK
  5
76
330
73
100
AcDbEntity
 67
     1
  8
0
100
AcDbBlockEnd
  0
ENDSEC
  0
SECTION
  2
ENTITIES
  0
TEXT
  5
38
330
1F
100
AcDbEntity
  8
0
  6
Continuous
 62
     8
100
AcDbText
 10
559.882541870334
 20
-562.8383302318272
 30
0.0
 40
24.0
  1
Scale 1:10
 41
0.890917013334947
  7
_TCW_TXTSTY_1
 72
     5
 11
723.882545685031
 21
-562.8383302318272
 31
0.0
100
AcDbText
1001
TCAD
1000
TCW40_TEXT
1002
{
1000
txt.shx
1070
     0
1070
  1025
1002
}
  0
TEXT
  5
3A
330
1F
100
AcDbEntity
  8
0
  6
Continuous
 62
     8
100
AcDbText
 10
601.0
 20
-66.199999745687
 30
0.0
 40
25.000000762939
  1
held in position by plastic wheel type supports
 41
0.6599199739292301
  7
_TCW_TXTSTY_2
 72
     5
 11
1302.000013699134
 21
-66.199999745687
 31
0.0
100
AcDbText
1001
TCAD
1000
TCW40_TEXT
1002
{
1000
txt.shx
1070
     0
1070
  1025
1002
}
  0
TEXT
  5
3C
330
1F
100
AcDbEntity
  8
0
  6
Continuous
 62
     8
100
AcDbText
 10
599.0
 20
88.800000254313
 30
0.0
 40
25.000000762939
  1
390 x 190 x 190
 41
0.7318518505042421
  7
_TCW_TXTSTY_3
 72
     5
 11
846.000007083019
 21
88.800000254313
 31
0.0
100
AcDbText
1001
TCAD
1000
TCW40_TEXT
1002
{
1000
txt.shx
1070
     0
1070
  1025
1002
}
  0
TEXT
  5
3E
330
1F
100
AcDbEntity
  8
0
  6
Continuous
 62
     8
100
AcDbText
 10
599.0
 20
50.799999745687
 30
0.0
 40
25.999999237061
  1
concrete lintel block (2013)
 41
0.6560435486306554
  7
_TCW_TXTSTY_4
 72
     5
 11
1014.000015815099
 21
50.799999745687
 31
0.0
100
AcDbText
1001
TCAD
1000
TCW40_TEXT
1002
{
1000
txt.shx
1070
     0
1070
  1025
1002
}
  0
LWPOLYLINE
  5
3F
330
1F
100
AcDbEntity
  8
0
  6
Continuous
 62
     8
100
AcDbPolyline
 90
        3
 70
     0
 43
0.0
 10
591.0
 20
100.8
 10
501.0
 20
100.8
 10
365.0
 20
78.8
1001
ACAD
1000
TCW40_DEV_WIDTH
1002
{
1040
-3.0
1002
}
  0
LWPOLYLINE
  5
40
330
1F
100
AcDbEntity
  8
0
  6
Continuous
 62
     8
100
AcDbPolyline
 90
        4
 70
     0
 43
0.0
 10
389.4585
 20
77.8941
 10
365.0
 20
78.8
 10
387.9255
 20
87.3709
 10
389.4585
 20
77.8941
1001
ACAD
1000
TCW40_DEV_WIDTH
1002
{
1040
-3.0
1002
}
  0
LWPOLYLINE
  5
41
330
1F
100
AcDbEntity
  8
0
  6
Continuous
 62
     8
100
AcDbPolyline
 90
        3
 70
     0
 43
0.0
 10
593.0
 20
-15.2
 10
501.0
 20
-15.2
 10
279.0
 20
18.8
1001
ACAD
1000
TCW40_DEV_WIDTH
1002
{
1040
-3.0
1002
}
  0
LWPOLYLINE
  5
42
330
1F
100
AcDbEntity
  8
0
  6
Continuous
 62
     8
100
AcDbPolyline
 90
        4
 70
     0
 43
0.0
 10
303.9131
 20
9.7238
 10
279.0
 20
18.8
 10
305.4875
 20
20.004
 10
303.9131
 20
9.7238
1001
ACAD
1000
TCW40_DEV_WIDTH
1002
{
1040
-3.0
1002
}
  0
TEXT
  5
44
330
1F
100
AcDbEntity
  8
0
  6
Continuous
 62
     8
100
AcDbText
 10
599.0
 20
198.799999745687
 30
0.0
 40
25.999999237061
  1
390 x 190 x 190
 41
0.7037037515798631
  7
_TCW_TXTSTY_5
 72
     5
 11
846.000009556611
 21
198.799999745687
 31
0.0
100
AcDbText
1001
TCAD
1000
TCW40_TEXT
1002
{
1000
txt.shx
1070
     0
1070
  1025
1002
}
  0
TEXT
  5
45
330
1F
100
AcDbEntity
  8
0
  6
Continuous
 62
     8
100
AcDbText
 10
599.0
 20
161.800000254313
 30
0.0
 40
25.000000762939
  1
concrete H block (2048) or Knock Out block (2020)
 41
0.6633209408814927
  7
_TCW_TXTSTY_5
 72
     5
 11
1358.999991208315
 21
161.800000254313
 31
0.0
100
AcDbText
1001
TCAD
1000
TCW40_TEXT
1002
{
1000
txt.shx
1070
     0
1070
  1025
1002
}
  0
LINE
  5
46
330
1F
100
AcDbEntity
  8
0
  6
Continuous
 62
     8
100
AcDbLine
 10
591.0
 20
210.8
 30
0.0
 11
363.0
 21
210.8
 31
0.0
1001
ACAD
1000
TCW40_DEV_WIDTH
1002
{
1040
-3.0
1002
}
  0
LWPOLYLINE
  5
47
330
1F
100
AcDbEntity
  8
0
  6
Continuous
 62
     8
100
AcDbPolyline
 90
        4
 70
     0
 43
0.0
 10
389.0
 20
205.6
 10
363.0
 20
210.8
 10
389.0
 20
216.0
 10
389.0
 20
205.6
1001
ACAD
1000
TCW40_DEV_WIDTH
1002
{
1040
-3.0
1002
}
  0
LWPOLYLINE
  5
48
330
1F
100
AcDbEntity
  8
0
  6
Continuous
 62
     8
100
AcDbPolyline
 90
        3
 70
     0
 43
0.0
 10
589.0
 20
358.8
 10
467.0
 20
358.8
 10
281.0
 20
300.8
1001
ACAD
1000
TCW40_DEV_WIDTH
1002
{
1040
-3.0
1002
}
  0
LWPOLYLINE
  5
49
330
1F
100
AcDbEntity
  8
0
  6
Continuous
 62
     8
100
AcDbPolyline
 90
        4
 70
     0
 43
0.0
 10
306.355
 20
303.4689
 10
281.0
 20
300.8
 10
303.3781
 20
313.0156
 10
306.355
 20
303.4689
1001
ACAD
1000
TCW40_DEV_WIDTH
1002
{
1040
-3.0
1002
}
  0
TEXT
  5
4A
330
1F
100
AcDbEntity
  8
0
  6
Continuous
 62
     8
100
AcDbText
 10
597.0
 20
310.800000254313
 30
0.0
 40
25.000000762939
  1
positioned on the webs of concrete blocks and held in position
 41
0.6615491924947086
  7
_TCW_TXTSTY_2
 72
     5
 11
1545.000021775564
 21
310.800000254313
 31
0.0
100
AcDbText
1001
TCAD
1000
TCW40_TEXT
1002
{
1000
txt.shx
1070
     0
1070
  1025
1002
}
  0
TEXT
  5
4C
330
1F
100
AcDbEntity
  8
0
  6
Continuous
 62
     8
100
AcDbText
 10
597.0
 20
272.799999745687
 30
0.0
 40
25.999999237061
  1
by plastic wheel type supports
 41
0.6401099310538533
  7
_TCW_TXTSTY_6
 72
     5
 11
1063.00001613299
 21
272.799999745687
 31
0.0
100
AcDbText
1001
TCAD
1000
TCW40_TEXT
1002
{
1000
txt.shx
1070
     0
1070
  1025
1002
}
  0
CIRCLE
  5
4D
330
1F
100
AcDbEntity
  8
LAYER2
  6
Continuous
 62
     8
100
AcDbCircle
 10
271.0
 20
20.8
 30
0.0
 40
5.3852
1001
ACAD
1000
TCW40_DEV_WIDTH
1002
{
1040
-3.0
1002
}
  0
CIRCLE
  5
4E
330
1F
100
AcDbEntity
  8
LAYER2
  6
Continuous
 62
     8
100
AcDbCircle
 10
273.0
 20
289.8
 30
0.0
 40
5.3852
1001
ACAD
1000
TCW40_DEV_WIDTH
1002
{
1040
-3.0
1002
}
  0
LWPOLYLINE
  5
4F
330
1F
100
AcDbEntity
  8
LAYER3
  6
Continuous
 62
     8
100
AcDbPolyline
 90
        2
 70
     0
 43
2.0
 10
310.0
 20
-19.2
 10
228.0
 20
-19.2
  0
LWPOLYLINE
  5
50
330
1F
100
AcDbEntity
  8
LAYER3
  6
Continuous
 62
     8
100
AcDbPolyline
 90
        5
 70
     0
 43
2.0
 10
309.0
 20
-19.2
 10
320.5625
 20
-16.3875
 10
326.5
 20
-10.2
 10
328.6875
 20
-4.0125
 10
329.0
 20
-1.2
  0
LWPOLYLINE
  5
51
330
1F
100
AcDbEntity
  8
LAYER3
  6
Continuous
 62
     8
100
AcDbPolyline
 90
        5
 70
     0
 43
2.0
 10
229.0
 20
-19.2
 10
217.4375
 20
-16.3875
 10
211.5
 20
-10.2
 10
209.3125
 20
-4.0125
 10
209.0
 20
-1.2
  0
LWPOLYLINE
  5
52
330
1F
100
AcDbEntity
  8
LAYER3
  6
Continuous
 62
     8
100
AcDbPolyline
 90
        2
 70
     0
 43
2.0
 10
174.0
 20
120.8
 10
209.0
 20
120.8
  0
LWPOLYLINE
  5
53
330
1F
100
AcDbEntity
  8
LAYER3
  6
Continuous
 62
     8
100
AcDbPolyline
 90
        2
 70
     0
 43
2.0
 10
209.0
 20
120.8
 10
209.0
 20
-3.2
  0
LWPOLYLINE
  5
54
330
1F
100
AcDbEntity
  8
LAYER3
  6
Continuous
 62
     8
100
AcDbPolyline
 90
        2
 70
     0
 43
2.0
 10
329.0
 20
120.8
 10
329.0
 20
-3.2
  0
LWPOLYLINE
  5
55
330
1F
100
AcDbEntity
  8
LAYER3
  6
Continuous
 62
     8
100
AcDbPolyline
 90
        2
 70
     0
 43
2.0
 10
329.0
 20
120.8
 10
364.0
 20
120.8
  0
LWPOLYLINE
  5
56
330
1F
100
AcDbEntity
  8
LAYER3
  6
Continuous
 62
     8
100
AcDbPolyline
 90
        2
 70
     0
 43
2.0
 10
329.0
 20
130.8
 10
364.0
 20
130.8
  0
LWPOLYLINE
  5
57
330
1F
100
AcDbEntity
  8
LAYER3
  6
Continuous
 62
     8
100
AcDbPolyline
 90
        2
 70
     0
 43
2.0
 10
174.0
 20
130.8
 10
329.0
 20
130.8
  0
LWPOLYLINE
  5
58
330
1F
100
AcDbEntity
  8
LAYER3
  6
Continuous
 62
     8
100
AcDbPolyline
 90
        2
 70
     0
 43
2.0
 10
204.0
 20
130.8
 10
209.0
 20
320.8
  0
LWPOLYLINE
  5
F7
330
1F
100
AcDbEntity
  8
LAYER3
  6
Continuous
 62
     8
100
AcDbPolyline
 90
        2
 70
     0
 43
2.0
 10
334.0
 20
130.8
 10
329.0
 20
320.8
  0
LWPOLYLINE
  5
F8
330
1F
100
AcDbEntity
  8
LAYER3
  6
Continuous
 62
     8
100
AcDbPolyline
 90
       37
 70
     0
 43
2.0
 10
209.0
 20
120.8
 10
209.2985
 20
120.9317
 10
209.5949
 20
121.0649
 10
209.8873
 20
121.2011
 10
210.1735
 20
121.3416
 10
210.4516
 20
121.488
 10
210.7196
 20
121.6417
 10
210.9754
 20
121.8042
 10
211.2169
 20
121.977
 10
211.4422
 20
122.1615
 10
211.6491
 20
122.3592
 10
211.8357
 20
122.5715
 10
212.0
 20
122.8
 10
212.2229
 20
123.2235
 10
212.3795
 20
123.6888
 10
212.4731
 20
124.1874
 10
212.5067
 20
124.711
 10
212.4836
 20
125.2513
 10
212.4069
 20
125.8
 10
212.2798
 20
126.3487
 10
212.1056
 20
126.889
 10
211.8873
 20
127.4126
 10
211.6281
 20
127.9113
 10
211.3313
 20
128.3765
 10
211.0
 20
128.8
 10
210.7887
 20
129.0285
 10
210.5672
 20
129.2408
 10
210.3367
 20
129.4385
 10
210.0978
 20
129.623
 10
209.8516
 20
129.7958
 10
209.599
 20
129.9583
 10
209.3409
 20
130.112
 10
209.0782
 20
130.2584
 10
208.8119
 20
130.3989
 10
208.5428
 20
130.5351
 10
208.2719
 20
130.6683
 10
208.0
 20
130.8
  0
LWPOLYLINE
  5
5B
330
1F
100
AcDbEntity
  8
LAYER3
  6
Continuous
 62
     8
100
AcDbPolyline
 90
       37
 70
     0
 43
2.0
 10
329.0
 20
120.8
 10
328.7015
 20
120.9317
 10
328.4051
 20
121.0649
 10
328.1128
 20
121.2011
 10
327.8265
 20
121.3416
 10
327.5483
 20
121.488
 10
327.2804
 20
121.6417
 10
327.0246
 20
121.8042
 10
326.7831
 20
121.977
 10
326.5578
 20
122.1615
 10
326.3509
 20
122.3592
 10
326.1642
 20
122.5715
 10
326.0
 20
122.8
 10
325.7771
 20
123.2235
 10
325.6205
 20
123.6888
 10
325.5269
 20
124.1874
 10
325.4933
 20
124.711
 10
325.5164
 20
125.2513
 10
325.5931
 20
125.8
 10
325.7202
 20
126.3487
 10
325.8944
 20
126.889
 10
326.1127
 20
127.4126
 10
326.3719
 20
127.9113
 10
326.6687
 20
128.3765
 10
327.0
 20
128.8
 10
327.2113
 20
129.0285
 10
327.4327
 20
129.2408
 10
327.6633
 20
129.4385
 10
327.9022
 20
129.623
 10
328.1484
 20
129.7958
 10
328.401
 20
129.9583
 10
328.6591
 20
130.112
 10
328.9218
 20
130.2584
 10
329.1881
 20
130.3989
 10
329.4572
 20
130.5351
 10
329.7281
 20
130.6683
 10
330.0
 20
130.8
  0
LWPOLYLINE
  5
5C
330
1F
100
AcDbEntity
  8
LAYER3
  6
Continuous
 62
     8
100
AcDbPolyline
 90
        2
 70
     0
 43
2.0
 10
174.0
 20
320.8
 10
209.0
 20
320.8
  0
LWPOLYLINE
  5
5D
330
1F
100
AcDbEntity
  8
LAYER3
  6
Continuous
 62
     8
100
AcDbPolyline
 90
        2
 70
     0
 43
2.0
 10
329.0
 20
320.8
 10
364.0
 20
320.8
  0
LWPOLYLINE
  5
F9
330
1F
100
AcDbEntity
  8
LAYER3
  6
Continuous
 62
     8
100
AcDbPolyline
 90
        2
 70
     0
 43
2.0
 10
329.0
 20
330.8
 10
364.0
 20
330.8
  0
LWPOLYLINE
  5
5F
330
1F
100
AcDbEntity
  8
LAYER3
  6
Continuous
 62
     8
100
AcDbPolyline
 90
        2
 70
     0
 43
2.0
 10
174.0
 20
330.8
 10
329.0
 20
330.8
  0
LWPOLYLINE
  5
60
330
1F
100
AcDbEntity
  8
LAYER3
  6
Continuous
 62
     8
100
AcDbPolyline
 90
       37
 70
     0
 43
2.0
 10
209.0
 20
320.8
 10
209.2985
 20
320.9317
 10
209.5949
 20
321.0649
 10
209.8873
 20
321.201
 10
210.1735
 20
321.3416
 10
210.4516
 20
321.4879
 10
210.7196
 20
321.6417
 10
210.9754
 20
321.8042
 10
211.2169
 20
321.977
 10
211.4422
 20
322.1615
 10
211.6491
 20
322.3592
 10
211.8357
 20
322.5715
 10
212.0
 20
322.8
 10
212.2229
 20
323.2235
 10
212.3795
 20
323.6888
 10
212.4731
 20
324.1873
 10
212.5067
 20
324.711
 10
212.4836
 20
325.2513
 10
212.4069
 20
325.8
 10
212.2798
 20
326.3487
 10
212.1056
 20
326.889
 10
211.8873
 20
327.4126
 10
211.6281
 20
327.9112
 10
211.3313
 20
328.3765
 10
211.0
 20
328.8
 10
210.7887
 20
329.0285
 10
210.5672
 20
329.2408
 10
210.3367
 20
329.4385
 10
210.0978
 20
329.623
 10
209.8516
 20
329.7958
 10
209.599
 20
329.9583
 10
209.3409
 20
330.112
 10
209.0782
 20
330.2584
 10
208.8119
 20
330.3989
 10
208.5428
 20
330.5351
 10
208.2719
 20
330.6682
 10
208.0
 20
330.8
  0
LWPOLYLINE
  5
61
330
1F
100
AcDbEntity
  8
LAYER3
  6
Continuous
 62
     8
100
AcDbPolyline
 90
       37
 70
     0
 43
2.0
 10
329.0
 20
320.8
 10
328.7015
 20
320.9317
 10
328.4051
 20
321.0649
 10
328.1128
 20
321.201
 10
327.8265
 20
321.3416
 10
327.5483
 20
321.4879
 10
327.2804
 20
321.6417
 10
327.0246
 20
321.8042
 10
326.7831
 20
321.977
 10
326.5578
 20
322.1615
 10
326.3509
 20
322.3592
 10
326.1642
 20
322.5715
 10
326.0
 20
322.8
 10
325.7771
 20
323.2235
 10
325.6205
 20
323.6888
 10
325.5269
 20
324.1873
 10
325.4933
 20
324.711
 10
325.5164
 20
325.2513
 10
325.5931
 20
325.8
 10
325.7202
 20
326.3487
 10
325.8944
 20
326.889
 10
326.1127
 20
327.4126
 10
326.3719
 20
327.9112
 10
326.6687
 20
328.3765
 10
327.0
 20
328.8
 10
327.2113
 20
329.0285
 10
327.4327
 20
329.2408
 10
327.6633
 20
329.4385
 10
327.9022
 20
329.623
 10
328.1484
 20
329.7958
 10
328.401
 20
329.9583
 10
328.6591
 20
330.112
 10
328.9218
 20
330.2584
 10
329.1881
 20
330.3989
 10
329.4572
 20
330.5351
 10
329.7281
 20
330.6682
 10
330.0
 20
330.8
  0
LWPOLYLINE
  5
62
330
1F
100
AcDbEntity
  8
LAYER3
  6
Continuous
 62
     8
100
AcDbPolyline
 90
        2
 70
     0
 43
2.0
 10
174.0
 20
-217.2
 10
174.0
 20
410.8
  0
LWPOLYLINE
  5
63
330
1F
100
AcDbEntity
  8
LAYER3
  6
Continuous
 62
     8
100
AcDbPolyline
 90
        2
 70
     0
 43
2.0
 10
364.0
 20
410.8
 10
364.0
 20
-217.2
  0
LWPOLYLINE
  5
64
330
1F
100
AcDbEntity
  8
LAYER3
  6
Continuous
 62
     8
100
AcDbPolyline
 90
        2
 70
     0
 43
2.0
 10
204.0
 20
330.8
 10
206.0
 20
410.8
  0
LWPOLYLINE
  5
65
330
1F
100
AcDbEntity
  8
LAYER3
  6
Continuous
 62
     8
100
AcDbPolyline
 90
        2
 70
     0
 43
2.0
 10
334.0
 20
330.8
 10
332.0
 20
410.8
  0
LWPOLYLINE
  5
66
330
1F
100
AcDbEntity
  8
LAYER3
  6
Continuous
 62
     8
100
AcDbPolyline
 90
        2
 70
     0
 43
2.0
 10
329.0
 20
-69.2
 10
364.0
 20
-69.2
  0
LWPOLYLINE
  5
67
330
1F
100
AcDbEntity
  8
LAYER3
  6
Continuous
 62
     8
100
AcDbPolyline
 90
        2
 70
     0
 43
2.0
 10
174.0
 20
-69.2
 10
329.0
 20
-69.2
  0
LWPOLYLINE
  5
68
330
1F
100
AcDbEntity
  8
LAYER3
  6
Continuous
 62
     8
100
AcDbPolyline
 90
       37
 70
     0
 43
2.0
 10
209.0
 20
-79.2
 10
209.2985
 20
-79.0683
 10
209.5949
 20
-78.9351
 10
209.8873
 20
-78.7989
 10
210.1735
 20
-78.6584
 10
210.4516
 20
-78.512
 10
210.7196
 20
-78.3583
 10
210.9754
 20
-78.1958
 10
211.2169
 20
-78.023
 10
211.4422
 20
-77.8385
 10
211.6491
 20
-77.6408
 10
211.8357
 20
-77.4285
 10
212.0
 20
-77.2
 10
212.2229
 20
-76.7765
 10
212.3795
 20
-76.3112
 10
212.4731
 20
-75.8126
 10
212.5067
 20
-75.289
 10
212.4836
 20
-74.7487
 10
212.4069
 20
-74.2
 10
212.2798
 20
-73.6513
 10
212.1056
 20
-73.111
 10
211.8873
 20
-72.5874
 10
211.6281
 20
-72.0887
 10
211.3313
 20
-71.6235
 10
211.0
 20
-71.2
 10
210.7887
 20
-70.9715
 10
210.5672
 20
-70.7592
 10
210.3367
 20
-70.5615
 10
210.0978
 20
-70.377
 10
209.8516
 20
-70.2042
 10
209.599
 20
-70.0417
 10
209.3409
 20
-69.888
 10
209.0782
 20
-69.7416
 10
208.8119
 20
-69.6011
 10
208.5428
 20
-69.4649
 10
208.2719
 20
-69.3317
 10
208.0
 20
-69.2
  0
LWPOLYLINE
  5
69
330
1F
100
AcDbEntity
  8
LAYER3
  6
Continuous
 62
     8
100
AcDbPolyline
 90
       37
 70
     0
 43
2.0
 10
329.0
 20
-79.2
 10
328.7015
 20
-79.0683
 10
328.4051
 20
-78.9351
 10
328.1128
 20
-78.7989
 10
327.8265
 20
-78.6584
 10
327.5483
 20
-78.512
 10
327.2804
 20
-78.3583
 10
327.0246
 20
-78.1958
 10
326.7831
 20
-78.023
 10
326.5578
 20
-77.8385
 10
326.3509
 20
-77.6408
 10
326.1642
 20
-77.4285
 10
326.0
 20
-77.2
 10
325.7771
 20
-76.7765
 10
325.6205
 20
-76.3112
 10
325.5269
 20
-75.8126
 10
325.4933
 20
-75.289
 10
325.5164
 20
-74.7487
 10
325.5931
 20
-74.2
 10
325.7202
 20
-73.6513
 10
325.8944
 20
-73.111
 10
326.1127
 20
-72.5874
 10
326.3719
 20
-72.0887
 10
326.6687
 20
-71.6235
 10
327.0
 20
-71.2
 10
327.2113
 20
-70.9715
 10
327.4327
 20
-70.7592
 10
327.6633
 20
-70.5615
 10
327.9022
 20
-70.377
 10
328.1484
 20
-70.2042
 10
328.401
 20
-70.0417
 10
328.6591
 20
-69.888
 10
328.9218
 20
-69.7416
 10
329.1881
 20
-69.6011
 10
329.4572
 20
-69.4649
 10
329.7281
 20
-69.3317
 10
330.0
 20
-69.2
  0
LWPOLYLINE
  5
6A
330
1F
100
AcDbEntity
  8
LAYER3
  6
Continuous
 62
     8
100
AcDbPolyline
 90
        2
 70
     0
 43
2.0
 10
209.0
 20
-79.2
 10
174.0
 20
-79.2
  0
LWPOLYLINE
  5
FA
330
1F
100
AcDbEntity
  8
LAYER3
  6
Continuous
 62
     8
100
AcDbPolyline
 90
        2
 70
     0
 43
2.0
 10
205.0
 20
-219.2
 10
209.0
 20
-79.2
  0
LWPOLYLINE
  5
FB
330
1F
100
AcDbEntity
  8
LAYER3
  6
Continuous
 62
     8
100
AcDbPolyline
 90
        2
 70
     0
 43
2.0
 10
209.0
 20
-79.2
 10
174.0
 20
-79.2
  0
LWPOLYLINE
  5
6D
330
1F
100
AcDbEntity
  8
LAYER3
  6
Continuous
 62
     8
100
AcDbPolyline
 90
        2
 70
     0
 43
2.0
 10
329.0
 20
-79.2
 10
364.0
 20
-79.2
  0
LWPOLYLINE
  5
6E
330
1F
100
AcDbEntity
  8
LAYER3
  6
Continuous
 62
     8
100
AcDbPolyline
 90
        2
 70
     0
 43
2.0
 10
333.0
 20
-219.2
 10
329.0
 20
-79.2
  0
LWPOLYLINE
  5
6F
330
1F
100
AcDbEntity
  8
LAYER3
  6
Continuous
 62
     8
100
AcDbPolyline
 90
        2
 70
     0
 43
2.0
 10
329.0
 20
-79.2
 10
364.0
 20
-79.2
  0
LINE
  5
70
330
1F
100
AcDbEntity
  8
LAYER3
  6
Continuous
 62
     8
100
AcDbLine
 10
174.0
 20
-244.2
 30
0.0
 11
174.0
 21
-413.2
 31
0.0
1001
ACAD
1000
TCW40_DEV_WIDTH
1002
{
1040
-3.0
1002
}
  0
LINE
  5
71
330
1F
100
AcDbEntity
  8
LAYER3
  6
Continuous
 62
     8
100
AcDbLine
 10
364.0
 20
-244.2
 30
0.0
 11
364.0
 21
-413.2
 31
0.0
1001
ACAD
1000
TCW40_DEV_WIDTH
1002
{
1040
-3.0
1002
}
  0
LINE
  5
72
330
1F
100
AcDbEntity
  8
LAYER3
  6
Continuous
 62
     8
100
AcDbLine
 10
269.0
 20
-400.2
 30
0.0
 11
174.0
 21
-400.2
 31
0.0
1001
ACAD
1000
TCW40_DEV_WIDTH
1002
{
1040
-3.0
1002
}
  0
LINE
  5
FC
330
1F
100
AcDbEntity
  8
LAYER3
  6
Continuous
 62
     8
100
AcDbLine
 10
162.0
 20
-412.2
 30
0.0
 11
186.0
 21
-388.2
 31
0.0
1001
ACAD
1000
TCW40_DEV_WIDTH
1002
{
1040
-3.0
1002
}
  0
LINE
  5
FD
330
1F
100
AcDbEntity
  8
LAYER3
  6
Continuous
 62
     8
100
AcDbLine
 10
269.0
 20
-400.2
 30
0.0
 11
364.0
 21
-400.2
 31
0.0
1001
ACAD
1000
TCW40_DEV_WIDTH
1002
{
1040
-3.0
1002
}
  0
LINE
  5
FE
330
1F
100
AcDbEntity
  8
LAYER3
  6
Continuous
 62
     8
100
AcDbLine
 10
376.0
 20
-388.2
 30
0.0
 11
352.0
 21
-412.2
 31
0.0
1001
ACAD
1000
TCW40_DEV_WIDTH
1002
{
1040
-3.0
1002
}
  0
TEXT
  5
77
330
1F
100
AcDbEntity
  8
LAYER3
  6
Continuous
 62
     8
100
AcDbText
 10
241.2801
 20
-387.2
 30
0.0
 40
24.0
  1
190
 41
1.064512312137576
  7
_TCW_TXTSTY_7
 72
     5
 11
296.719901216125
 21
-387.2
 31
0.0
100
AcDbText
1001
TCAD
1000
TCW40_TEXT
1002
{
1000
txt.shx
1070
     0
1070
  1025
1002
}
  0
LINE
  5
78
330
1F
100
AcDbEntity
  8
LAYER3
  6
Continuous
 62
     8
100
AcDbLine
 10
269.0
 20
-244.2
 30
0.0
 11
269.0
 21
-343.2
 31
0.0
1001
ACAD
1000
TCW40_DEV_WIDTH
1002
{
1040
-3.0
1002
}
  0
LINE
  5
79
330
1F
100
AcDbEntity
  8
LAYER3
  6
Continuous
 62
     8
100
AcDbLine
 10
364.0
 20
-244.2
 30
0.0
 11
364.0
 21
-343.2
 31
0.0
1001
ACAD
1000
TCW40_DEV_WIDTH
1002
{
1040
-3.0
1002
}
  0
LINE
  5
7A
330
1F
100
AcDbEntity
  8
LAYER3
  6
Continuous
 62
     8
100
AcDbLine
 10
317.0
 20
-331.2
 30
0.0
 11
269.0
 21
-331.2
 31
0.0
1001
ACAD
1000
TCW40_DEV_WIDTH
1002
{
1040
-3.0
1002
}
  0
LINE
  5
7B
330
1F
100
AcDbEntity
  8
LAYER3
  6
Continuous
 62
     8
100
AcDbLine
 10
256.0
 20
-344.2
 30
0.0
 11
282.0
 21
-318.2
 31
0.0
1001
ACAD
1000
TCW40_DEV_WIDTH
1002
{
1040
-3.0
1002
}
  0
LINE
  5
7C
330
1F
100
AcDbEntity
  8
LAYER3
  6
Continuous
 62
     8
100
AcDbLine
 10
317.0
 20
-331.2
 30
0.0
 11
364.0
 21
-331.2
 31
0.0
1001
ACAD
1000
TCW40_DEV_WIDTH
1002
{
1040
-3.0
1002
}
  0
LINE
  5
7D
330
1F
100
AcDbEntity
  8
LAYER3
  6
Continuous
 62
     8
100
AcDbLine
 10
377.0
 20
-318.2
 30
0.0
 11
351.0
 21
-344.2
 31
0.0
1001
ACAD
1000
TCW40_DEV_WIDTH
1002
{
1040
-3.0
1002
}
  0
TEXT
  5
7F
330
1F
100
AcDbEntity
  8
LAYER3
  6
Continuous
 62
     8
100
AcDbText
 10
296.98
 20
-319.200000254313
 30
0.0
 40
25.999999237061
  1
95
 41
0.9221556928398218
  7
_TCW_TXTSTY_8
 72
     5
 11
337.019999008179
 21
-319.200000254313
 31
0.0
100
AcDbText
1001
TCAD
1000
TCW40_TEXT
1002
{
1000
txt.shx
1070
     0
1070
  1025
1002
}
  0
LINE
  5
80
330
1F
100
AcDbEntity
  8
LAYER3
  6
Continuous
 62
     8
100
AcDbLine
 10
105.0
 20
20.8
 30
0.0
 11
37.0
 21
20.8
 31
0.0
1001
ACAD
1000
TCW40_DEV_WIDTH
1002
{
1040
-3.0
1002
}
  0
LINE
  5
81
330
1F
100
AcDbEntity
  8
LAYER3
  6
Continuous
 62
     8
100
AcDbLine
 10
105.0
 20
320.8
 30
0.0
 11
37.0
 21
320.8
 31
0.0
1001
ACAD
1000
TCW40_DEV_WIDTH
1002
{
1040
-3.0
1002
}
  0
LINE
  5
82
330
1F
100
AcDbEntity
  8
LAYER3
  6
Continuous
 62
     8
100
AcDbLine
 10
50.0
 20
170.8
 30
0.0
 11
50.0
 21
20.8
 31
0.0
1001
ACAD
1000
TCW40_DEV_WIDTH
1002
{
1040
-3.0
1002
}
  0
LINE
  5
83
330
1F
100
AcDbEntity
  8
LAYER3
  6
Continuous
 62
     8
100
AcDbLine
 10
62.0
 20
8.8
 30
0.0
 11
38.0
 21
32.8
 31
0.0
1001
ACAD
1000
TCW40_DEV_WIDTH
1002
{
1040
-3.0
1002
}
  0
LINE
  5
84
330
1F
100
AcDbEntity
  8
LAYER3
  6
Continuous
 62
     8
100
AcDbLine
 10
50.0
 20
170.8
 30
0.0
 11
50.0
 21
320.8
 31
0.0
1001
ACAD
1000
TCW40_DEV_WIDTH
1002
{
1040
-3.0
1002
}
  0
LINE
  5
85
330
1F
100
AcDbEntity
  8
LAYER3
  6
Continuous
 62
     8
100
AcDbLine
 10
38.0
 20
332.8
 30
0.0
 11
62.0
 21
308.8
 31
0.0
1001
ACAD
1000
TCW40_DEV_WIDTH
1002
{
1040
-3.0
1002
}
  0
LWPOLYLINE
  5
86
330
1F
100
AcDbEntity
  8
LAYER3
  6
Continuous
 62
     8
100
AcDbPolyline
 90
        2
 70
     0
 43
2.0
 10
208.0
 20
280.8
 10
330.0
 20
280.8
  0
TEXT
  5
88
330
1F
100
AcDbEntity
  8
0
  6
Continuous
 62
     7
100
AcDbText
 10
180.4915
 20
944.4789
 30
0.0
 40
22.5
  1
Notes:
 41
0.7452503840128533
  7
_TCW_TXTSTY_9
 72
     5
 11
264.332168201446
 21
944.4789
 31
0.0
100
AcDbText
1001
TCAD
1000
TCW40_TEXT
1002
{
1000
txt.shx
1070
     0
1070
  1025
1002
}
  0
TEXT
  5
89
330
1F
100
AcDbEntity
  8
0
  6
Continuous
 62
     7
100
AcDbText
 10
180.4915
 20
909.9789
 30
0.0
 40
22.5
  1
Concrete blocks f'  15 MPa
 41
0.6929608182820908
  7
_TCW_TXTSTY_5
 72
     5
 11
559.991492132187
 21
909.9789
 31
0.0
100
AcDbText
1001
TCAD
1000
TCW40_TEXT
1002
{
1000
txt.shx
1070
     0
1070
  1025
1002
}
  0
TEXT
  5
8A
330
1F
100
AcDbEntity
  8
0
  6
Continuous
 62
     7
100
AcDbText
 10
425.7415
 20
904.7289
 30
0.0
 40
14.25
  1
uc
 41
0.8194138189989721
  7
_TCW_TXTSTY_5
 72
     5
 11
445.241500357628
 21
904.7289
 31
0.0
100
AcDbText
1001
TCAD
1000
TCW40_TEXT
1002
{
1000
txt.shx
1070
     0
1070
  1025
1002
}
  0
TEXT
  5
8B
330
1F
100
AcDbEntity
  8
LAYER4
  6
Continuous
 62
     7
100
AcDbText
 10
179.7415
 20
810.2289
 30
0.0
 40
23.25
  1
Reinforcement shall be held in position by
 41
0.7041193935047992
  7
_TCW_TXTSTY_9
 72
     5
 11
793.481888453007
 21
810.2289
 31
0.0
100
AcDbText
1001
TCAD
1000
TCW40_TEXT
1002
{
1000
txt.shx
1070
     0
1070
  1025
1002
}
  0
TEXT
  5
8D
330
1F
100
AcDbEntity
  8
LAYER4
  6
Continuous
 62
     7
100
AcDbText
 10
178.2415
 20
775.7289
 30
0.0
 40
22.5
  1
      - steel ligatures; or
 41
0.4568306126229757
  7
_TCW_TXTSTY_A
 72
     5
 11
491.741507912517
 21
775.7289
 31
0.0
100
AcDbText
1001
TCAD
1000
TCW40_TEXT
1002
{
1000
txt.shx
1070
     0
1070
  1025
1002
}
  0
TEXT
  5
8F
330
1F
100
AcDbEntity
  8
LAYER4
  6
Continuous
 62
     7
100
AcDbText
 10
179.7415
 20
742.7289
 30
0.0
 40
22.5
  1
      - steel hangers; or
 41
0.4516346510066539
  7
_TCW_TXTSTY_B
 72
     5
 11
481.241502145767
 21
742.7289
 31
0.0
100
AcDbText
1001
TCAD
1000
TCW40_TEXT
1002
{
1000
txt.shx
1070
     0
1070
  1025
1002
}
  0
TEXT
  5
91
330
1F
100
AcDbEntity
  8
LAYER4
  6
Continuous
 62
     7
100
AcDbText
 10
179.7415
 20
708.9789
 30
0.0
 40
22.5
  1
      - plastic wheel type support
 41
0.4982456031598538
  7
_TCW_TXTSTY_C
 72
     5
 11
605.741490701675
 21
708.9789
 31
0.0
100
AcDbText
1001
TCAD
1000
TCW40_TEXT
1002
{
1000
txt.shx
1070
     0
1070
  1025
1002
}
  0
TEXT
  5
FF
330
1F
100
AcDbEntity
  8
LAYER4
  6
Continuous
 62
     7
100
AcDbText
 10
179.7415
 20
875.4789
 30
0.0
 40
23.25
  1
Mortar M3 (1:5 + methyl cellulose water thickener)
 41
0.6682180312549604
  7
_TCW_TXTSTY_D
 72
     5
 11
883.991518045306
 21
875.4789
 31
0.0
100
AcDbText
1001
TCAD
1000
TCW40_TEXT
1002
{
1000
txt.shx
1070
     0
1070
  1025
1002
}
  0
TEXT
  5
95
330
1F
100
AcDbEntity
  8
0
  6
Continuous
 62
     7
100
AcDbText
 10
823.2415
 20
857.4789
 30
0.0
 40
10.5
  1
      3
 41
0.2762430939226519
  7
_TCW_TXTSTY_E
 72
     5
 11
859.9915
 21
857.4789
 31
0.0
100
AcDbText
1001
TCAD
1000
TCW40_TEXT
1002
{
1000
txt.shx
1070
     0
1070
  1025
1002
}
  0
TEXT
  5
96
330
1F
100
AcDbEntity
  8
LAYER4
  6
Continuous
 62
     7
100
AcDbText
 10
178.2415
 20
844.7289
 30
0.0
 40
22.5
  1
Concrete grout N20 (minimum cement 300 kg/m , maximum aggregate 10mm)
 41
0.7196502844788398
  7
_TCW_TXTSTY_3
 72
     5
 11
1222.310132721901
 21
844.7289
 31
0.0
100
AcDbText
1001
TCAD
1000
TCW40_TEXT
1002
{
1000
txt.shx
1070
     0
1070
  1025
1002
}
  0
TEXT
  5
100
330
1F
100
AcDbEntity
  8
LAYER3
  6
Continuous
 62
     7
100
AcDbText
 10
592.5353
 20
348.8484
 30
0.0
 40
25.000000762939
  1
1 N20 (minimum cover, c = 20, effective depth, d = 95)
 41
0.6982793793169866
  7
_TCW_TXTSTY_9
 72
     5
 11
1444.785308464972
 21
348.8484
 31
0.0
100
AcDbText
1001
TCAD
1000
TCW40_TEXT
1002
{
1000
txt.shx
1070
     0
1070
  1025
1002
}
  0
TEXT
  5
101
330
1F
100
AcDbEntity
  8
LAYER3
  6
Continuous
 62
     7
100
AcDbText
 10
597.3198
 20
-26.7303
 30
0.0
 40
25.000000762939
  1
1 N20 (minimum cover, c = 20, effective depth, d = 95)
 41
0.6982797995122314
  7
_TCW_TXTSTY_9
 72
     5
 11
1449.570321313284
 21
-26.7303
 31
0.0
100
AcDbText
1001
TCAD
1000
TCW40_TEXT
1002
{
1000
txt.shx
1070
     0
1070
  1025
1002
}
  0
TEXT
  5
102
330
1F
100
AcDbEntity
  8
LAYER3
  6
Continuous
 62
     8
100
AcDbText
 10
35.534165743279
 20
136.228531302732
 30
0.0
 40
24.0
  1
300
 50
88.41287873892524
 41
0.9914127371682954
  7
_TCW_TXTSTY_10
 72
     5
 11
37.069679078093
 21
191.647062968043
 31
0.0
100
AcDbText
1001
TCAD
1000
TCW40_TEXT
1002
{
1000
txt.shx
1070
     0
1070
  1025
1002
}
  0
TEXT
  5
C5
330
1F
100
AcDbEntity
  8
0
  6
Continuous
 62
     7
370
    30
100
AcDbText
 10
70.68253847130882
 20
-505.9470562961633
 30
0.0
 40
29.99999997575612
  1
Reinforced Concrete Masonry Bond Beam Manafactured By Island Block & Paving
 50
0.1153913904484886
 41
0.6145257970144399
  7
_TCW_TXTSTY_4
 72
     5
 11
1398.05556701043
 21
-503.2737769064242
 31
0.0
100
AcDbText
1001
TCAD
1000
TCW40_TEXT
1002
{
1000
txt.shx
1070
     0
1070
  1025
1002
}
  0
ENDSEC
  0
SECTION
  2
OBJECTS
  0
DICTIONARY
  5
C
330
0
100
AcDbDictionary
281
     1
  3
ACAD_COLOR
350
6C
  3
ACAD_GROUP
350
D
  3
ACAD_LAYOUT
350
1A
  3
ACAD_MATERIAL
350
6B
  3
ACAD_MLEADERSTYLE
350
104
  3
ACAD_MLINESTYLE
350
17
  3
ACAD_PLOTSETTINGS
350
19
  3
ACAD_PLOTSTYLENAME
350
E
  3
ACAD_SCALELIST
350
99
  3
ACAD_TABLESTYLE
350
92
  3
AcDbVariableDictionary
350
59
  0
DICTIONARY
  5
103
330
1F
100
AcDbDictionary
280
     1
281
     1
  0
DICTIONARY
  5
6C
102
{ACAD_REACTORS
330
C
102
}
330
C
100
AcDbDictionary
281
     1
  0
DICTIONARY
  5
D
102
{ACAD_REACTORS
330
C
102
}
330
C
100
AcDbDictionary
281
     1
  0
DICTIONARY
  5
1A
102
{ACAD_REACTORS
330
C
102
}
330
C
100
AcDbDictionary
281
     1
  3
_Paper_Space
350
F6
  3
Model
350
22
  0
DICTIONARY
  5
6B
102
{ACAD_REACTORS
330
C
102
}
330
C
100
AcDbDictionary
281
     1
  0
DICTIONARY
  5
104
102
{ACAD_REACTORS
330
C
102
}
330
C
100
AcDbDictionary
281
     1
  0
DICTIONARY
  5
17
102
{ACAD_REACTORS
330
C
102
}
330
C
100
AcDbDictionary
281
     1
  3
Standard
350
18
  0
DICTIONARY
  5
19
102
{ACAD_REACTORS
330
C
102
}
330
C
100
AcDbDictionary
281
     1
  0
ACDBDICTIONARYWDFLT
  5
E
102
{ACAD_REACTORS
330
C
102
}
330
C
100
AcDbDictionary
281
     1
  3
Normal
350
F
100
AcDbDictionaryWithDefault
340
F
  0
DICTIONARY
  5
99
102
{ACAD_REACTORS
330
C
102
}
330
C
100
AcDbDictionary
281
     1
  3
A0
350
DB
  3
A1
350
DC
  3
A2
350
DD
  3
A3
350
DE
  3
A4
350
DF
  3
A5
350
E0
  3
A6
350
E1
  3
A7
350
E2
  3
A8
350
E3
  3
A9
350
E4
  3
B0
350
E5
  3
B1
350
E6
  3
B2
350
E7
  3
B3
350
E8
  3
B4
350
E9
  3
B5
350
EA
  3
B6
350
EB
  3
B7
350
EC
  3
B8
350
ED
  3
B9
350
EE
  3
C0
350
EF
  3
C1
350
F0
  3
C2
350
F1
  3
C3
350
F2
  3
C4
350
F3
  3
C5
350
F4
  3
C6
350
F5
  3
C7
350
BB
  3
C8
350
BC
  3
C9
350
BD
  3
D0
350
BE
  3
D1
350
BF
  3
D2
350
C0
  0
DICTIONARY
  5
92
102
{ACAD_REACTORS
330
C
102
}
330
C
100
AcDbDictionary
281
     1
  3
Standard
350
93
  0
DICTIONARY
  5
59
102
{ACAD_REACTORS
330
C
102
}
330
C
100
AcDbDictionary
281
     1
  3
CANNOSCALE
350
105
  3
CTABLESTYLE
350
98
  3
DIMASSOC
350
C2
  3
HIDETEXT
350
5E
  0
LAYOUT
  5
F6
102
{ACAD_REACTORS
330
1A
102
}
330
1A
100
AcDbPlotSettings
  1

  2
none_device
  4
Sun_Hi-Res_(1280.00_x_1600.00_Pixels)
  6

 40
0.0
 41
0.0
 42
0.0
 43
0.0
 44
1280.0
 45
1600.0
 46
0.0
 47
0.0
 48
0.0
 49
0.0
140
0.0
141
0.0
142
1.0
143
1.0
 70
   544
 72
     2
 73
     0
 74
     0
  7

 75
    16
 76
     0
 77
     2
 78
   300
147
1.0
148
0.0
149
0.0
100
AcDbLayout
  1
_Paper_Space
 70
     0
 71
     1
 10
0.0
 20
0.0
 11
304.8
 21
228.6
 12
0.0
 22
0.0
 32
0.0
 14
0.0
 24
0.0
 34
0.0
 15
0.0
 25
0.0
 35
0.0
146
0.0
 13
0.0
 23
0.0
 33
0.0
 16
1.0
 26
0.0
 36
0.0
 17
0.0
 27
1.0
 37
0.0
 76
     0
330
73
  0
LAYOUT
  5
22
102
{ACAD_REACTORS
330
1A
102
}
330
1A
100
AcDbPlotSettings
  1

  2
none_device
  4
ISO_C5_(229.00_x_162.00_MM)
  6

 40
0.0
 41
0.0
 42
0.0
 43
0.0
 44
229.0
 45
162.0
 46
0.0
 47
0.0
 48
0.0
 49
0.0
140
0.0
141
0.0
142
1.0
143
1.0
 70
 11808
 72
     1
 73
     0
 74
     0
  7

 75
     0
 76
     0
 77
     2
 78
   300
147
0.075721388823669
148
0.0
149
0.0
100
AcDbLayout
  1
Model
 70
     1
 71
     0
 10
736.0000108878
 20
-48.1938833333
 11
2244.0000326633
 21
1912.1516833333
 12
0.0
 22
0.0
 32
0.0
 14
11.65540612312715
 24
-575.2
 34
0.0
 15
1901.803881250952
 25
966.9789
 35
0.0
146
0.0
 13
0.0
 23
0.0
 33
0.0
 16
1.0
 26
0.0
 36
0.0
 17
0.0
 27
1.0
 37
0.0
 76
     0
330
1F
331
97
  0
MLINESTYLE
  5
18
102
{ACAD_REACTORS
330
17
102
}
330
17
100
AcDbMlineStyle
  2
Standard
 70
     0
  3

 62
   256
 51
90.0
 52
90.0
 71
     2
 49
0.5
 62
   256
  6
BYLAYER
 49
-0.5
 62
   256
  6
BYLAYER
  0
ACDBPLACEHOLDER
  5
F
102
{ACAD_REACTORS
330
E
102
}
330
E
  0
SCALE
  5
DB
102
{ACAD_REACTORS
330
99
102
}
330
99
100
AcDbScale
 70
     0
300
1:1
140
1.0
141
1.0
290
     1
  0
SCALE
  5
DC
102
{ACAD_REACTORS
330
99
102
}
330
99
100
AcDbScale
 70
     0
300
1:2
140
1.0
141
2.0
290
     0
  0
SCALE
  5
DD
102
{ACAD_REACTORS
330
99
102
}
330
99
100
AcDbScale
 70
     0
300
1:4
140
1.0
141
4.0
290
     0
  0
SCALE
  5
DE
102
{ACAD_REACTORS
330
99
102
}
330
99
100
AcDbScale
 70
     0
300
1:5
140
1.0
141
5.0
290
     0
  0
SCALE
  5
DF
102
{ACAD_REACTORS
330
99
102
}
330
99
100
AcDbScale
 70
     0
300
1:8
140
1.0
141
8.0
290
     0
  0
SCALE
  5
E0
102
{ACAD_REACTORS
330
99
102
}
330
99
100
AcDbScale
 70
     0
300
1:10
140
1.0
141
10.0
290
     0
  0
SCALE
  5
E1
102
{ACAD_REACTORS
330
99
102
}
330
99
100
AcDbScale
 70
     0
300
1:16
140
1.0
141
16.0
290
     0
  0
SCALE
  5
E2
102
{ACAD_REACTORS
330
99
102
}
330
99
100
AcDbScale
 70
     0
300
1:20
140
1.0
141
20.0
290
     0
  0
SCALE
  5
E3
102
{ACAD_REACTORS
330
99
102
}
330
99
100
AcDbScale
 70
     0
300
1:30
140
1.0
141
30.0
290
     0
  0
SCALE
  5
E4
102
{ACAD_REACTORS
330
99
102
}
330
99
100
AcDbScale
 70
     0
300
1:40
140
1.0
141
40.0
290
     0
  0
SCALE
  5
E5
102
{ACAD_REACTORS
330
99
102
}
330
99
100
AcDbScale
 70
     0
300
1:50
140
1.0
141
50.0
290
     0
  0
SCALE
  5
E6
102
{ACAD_REACTORS
330
99
102
}
330
99
100
AcDbScale
 70
     0
300
1:100
140
1.0
141
100.0
290
     0
  0
SCALE
  5
E7
102
{ACAD_REACTORS
330
99
102
}
330
99
100
AcDbScale
 70
     0
300
2:1
140
2.0
141
1.0
290
     0
  0
SCALE
  5
E8
102
{ACAD_REACTORS
330
99
102
}
330
99
100
AcDbScale
 70
     0
300
4:1
140
4.0
141
1.0
290
     0
  0
SCALE
  5
E9
102
{ACAD_REACTORS
330
99
102
}
330
99
100
AcDbScale
 70
     0
300
8:1
140
8.0
141
1.0
290
     0
  0
SCALE
  5
EA
102
{ACAD_REACTORS
330
99
102
}
330
99
100
AcDbScale
 70
     0
300
10:1
140
10.0
141
1.0
290
     0
  0
SCALE
  5
EB
102
{ACAD_REACTORS
330
99
102
}
330
99
100
AcDbScale
 70
     0
300
100:1
140
100.0
141
1.0
290
     0
  0
SCALE
  5
EC
102
{ACAD_REACTORS
330
99
102
}
330
99
100
AcDbScale
 70
     0
300
1/128" = 1'-0"
140
0.0078125
141
12.0
290
     0
  0
SCALE
  5
ED
102
{ACAD_REACTORS
330
99
102
}
330
99
100
AcDbScale
 70
     0
300
1/64" = 1'-0"
140
0.015625
141
12.0
290
     0
  0
SCALE
  5
EE
102
{ACAD_REACTORS
330
99
102
}
330
99
100
AcDbScale
 70
     0
300
1/32" = 1'-0"
140
0.03125
141
12.0
290
     0
  0
SCALE
  5
EF
102
{ACAD_REACTORS
330
99
102
}
330
99
100
AcDbScale
 70
     0
300
1/16" = 1'-0"
140
0.0625
141
12.0
290
     0
  0
SCALE
  5
F0
102
{ACAD_REACTORS
330
99
102
}
330
99
100
AcDbScale
 70
     0
300
3/32" = 1'-0"
140
0.09375
141
12.0
290
     0
  0
SCALE
  5
F1
102
{ACAD_REACTORS
330
99
102
}
330
99
100
AcDbScale
 70
     0
300
1/8" = 1'-0"
140
0.125
141
12.0
290
     0
  0
SCALE
  5
F2
102
{ACAD_REACTORS
330
99
102
}
330
99
100
AcDbScale
 70
     0
300
3/16" = 1'-0"
140
0.1875
141
12.0
290
     0
  0
SCALE
  5
F3
102
{ACAD_REACTORS
330
99
102
}
330
99
100
AcDbScale
 70
     0
300
1/4" = 1'-0"
140
0.25
141
12.0
290
     0
  0
SCALE
  5
F4
102
{ACAD_REACTORS
330
99
102
}
330
99
100
AcDbScale
 70
     0
300
3/8" = 1'-0"
140
0.375
141
12.0
290
     0
  0
SCALE
  5
F5
102
{ACAD_REACTORS
330
99
102
}
330
99
100
AcDbScale
 70
     0
300
1/2" = 1'-0"
140
0.5
141
12.0
290
     0
  0
SCALE
  5
BB
102
{ACAD_REACTORS
330
99
102
}
330
99
100
AcDbScale
 70
     0
300
3/4" = 1'-0"
140
0.75
141
12.0
290
     0
  0
SCALE
  5
BC
102
{ACAD_REACTORS
330
99
102
}
330
99
100
AcDbScale
 70
     0
300
1" = 1'-0"
140
1.0
141
12.0
290
     0
  0
SCALE
  5
BD
102
{ACAD_REACTORS
330
99
102
}
330
99
100
AcDbScale
 70
     0
300
1-1/2" = 1'-0"
140
1.5
141
12.0
290
     0
  0
SCALE
  5
BE
102
{ACAD_REACTORS
330
99
102
}
330
99
100
AcDbScale
 70
     0
300
3" = 1'-0"
140
3.0
141
12.0
290
     0
  0
SCALE
  5
BF
102
{ACAD_REACTORS
330
99
102
}
330
99
100
AcDbScale
 70
     0
300
6" = 1'-0"
140
6.0
141
12.0
290
     0
  0
SCALE
  5
C0
102
{ACAD_REACTORS
330
99
102
}
330
99
100
AcDbScale
 70
     0
300
1'-0" = 1'-0"
140
12.0
141
12.0
290
     0
  0
TABLESTYLE
  5
93
102
{ACAD_REACTORS
330
92
102
}
330
92
100
AcDbTableStyle
  3
Standard
 70
     0
 71
     0
 40
0.06
 41
0.06
280
     0
281
     0
  7
Standard
140
0.18
170
     2
 62
     0
 63
     7
283
     0
 90
      512
 91
        0
  1

274
    -2
284
     1
 64
     0
275
    -2
285
     1
 65
     0
276
    -2
286
     1
 66
     0
277
    -2
287
     1
 67
     0
278
    -2
288
     1
 68
     0
279
    -2
289
     1
 69
     0
  7
Standard
140
0.25
170
     5
 62
     0
 63
     7
283
     0
 90
      512
 91
        0
  1

274
    -2
284
     1
 64
     0
275
    -2
285
     1
 65
     0
276
    -2
286
     1
 66
     0
277
    -2
287
     1
 67
     0
278
    -2
288
     1
 68
     0
279
    -2
289
     1
 69
     0
  7
Standard
140
0.18
170
     5
 62
     0
 63
     7
283
     0
 90
      512
 91
        0
  1

274
    -2
284
     1
 64
     0
275
    -2
285
     1
 65
     0
276
    -2
286
     1
 66
     0
277
    -2
287
     1
 67
     0
278
    -2
288
     1
 68
     0
279
    -2
289
     1
 69
     0
  0
DICTIONARYVAR
  5
105
102
{ACAD_REACTORS
330
59
102
}
330
59
100
DictionaryVariables
280
     0
  1
1:1
  0
DICTIONARYVAR
  5
98
102
{ACAD_REACTORS
330
59
102
}
330
59
100
DictionaryVariables
280
     0
  1
Standard
  0
DICTIONARYVAR
  5
C2
102
{ACAD_REACTORS
330
59
102
}
330
59
100
DictionaryVariables
280
     0
  1
2
  0
DICTIONARYVAR
  5
5E
102
{ACAD_REACTORS
330
59
102
}
330
59
100
DictionaryVariables
280
     0
  1
1
  0
ENDSEC
  0
EOF
