  0
SECTION
  2
HEADER
  9
$ACADVER
  1
AC1021
  9
$ACADMAINTVER
 70
    25
  9
$DWGCODEPAGE
  3
ANSI_1252
  9
$LASTSAVEDBY
  1
jbassett
  9
$INSBASE
 10
0.0
 20
0.0
 30
0.0
  9
$EXTMIN
 10
-5614119.766886561
 20
-6877815.499999746
 30
0.0
  9
$EXTMAX
 10
-5612637.000034811
 20
-6876408.999998983
 30
0.0
  9
$LIMMIN
 10
-5613420.750017405
 20
-6877280.75
  9
$LIMMAX
 10
-5611963.250052216
 20
-6875605.583333334
  9
$ORTHOMODE
 70
     0
  9
$REGENMODE
 70
     1
  9
$FILLMODE
 70
     1
  9
$QTEXTMODE
 70
     0
  9
$MIRRTEXT
 70
     1
  9
$LTSCALE
 40
1.0
  9
$ATTMODE
 70
     1
  9
$TEXTSIZE
 40
0.2
  9
$TRACEWID
 40
0.05
  9
$TEXTSTYLE
  7
Standard
  9
$CLAYER
  8
0
  9
$CELTYPE
  6
Continuous
  9
$CECOLOR
 62
     7
  9
$CELTSCALE
 40
1.0
  9
$DISPSILH
 70
     0
  9
$DIMSCALE
 40
1.0
  9
$DIMASZ
 40
0.18
  9
$DIMEXO
 40
0.0625
  9
$DIMDLI
 40
0.38
  9
$DIMRND
 40
0.0000001
  9
$DIMDLE
 40
0.0
  9
$DIMEXE
 40
0.18
  9
$DIMTP
 40
0.0
  9
$DIMTM
 40
0.0
  9
$DIMTXT
 40
0.18
  9
$DIMCEN
 40
0.09
  9
$DIMTSZ
 40
0.0
  9
$DIMTOL
 70
     0
  9
$DIMLIM
 70
     0
  9
$DIMTIH
 70
     1
  9
$DIMTOH
 70
     1
  9
$DIMSE1
 70
     0
  9
$DIMSE2
 70
     0
  9
$DIMTAD
 70
     0
  9
$DIMZIN
 70
     0
  9
$DIMBLK
  1

  9
$DIMASO
 70
     0
  9
$DIMSHO
 70
     0
  9
$DIMPOST
  1
<>
  9
$DIMAPOST
  1
<>
  9
$DIMALT
 70
     0
  9
$DIMALTD
 70
     2
  9
$DIMALTF
 40
25.4
  9
$DIMLFAC
 40
1.0
  9
$DIMTOFL
 70
     0
  9
$DIMTVP
 40
0.0
  9
$DIMTIX
 70
     0
  9
$DIMSOXD
 70
     0
  9
$DIMSAH
 70
     0
  9
$DIMBLK1
  1

  9
$DIMBLK2
  1

  9
$DIMSTYLE
  2
Standard
  9
$DIMCLRD
 70
     0
  9
$DIMCLRE
 70
     0
  9
$DIMCLRT
 70
     0
  9
$DIMTFAC
 40
1.0
  9
$DIMGAP
 40
0.09
  9
$DIMJUST
 70
     0
  9
$DIMSD1
 70
     0
  9
$DIMSD2
 70
     0
  9
$DIMTOLJ
 70
     1
  9
$DIMTZIN
 70
     0
  9
$DIMALTZ
 70
     0
  9
$DIMALTTZ
 70
     0
  9
$DIMUPT
 70
     0
  9
$DIMDEC
 70
     4
  9
$DIMTDEC
 70
     4
  9
$DIMALTU
 70
     2
  9
$DIMALTTD
 70
     2
  9
$DIMTXSTY
  7
Standard
  9
$DIMAUNIT
 70
     0
  9
$DIMADEC
 70
     4
  9
$DIMALTRND
 40
0.0
  9
$DIMAZIN
 70
     0
  9
$DIMDSEP
 70
     0
  9
$DIMATFIT
 70
     3
  9
$DIMFRAC
 70
     0
  9
$DIMLDRBLK
  1

  9
$DIMLUNIT
 70
     2
  9
$DIMLWD
 70
     0
  9
$DIMLWE
 70
     0
  9
$DIMTMOVE
 70
     0
  9
$DIMFXL
 40
1.0
  9
$DIMFXLON
 70
     0
  9
$DIMJOGANG
 40
0.7853981633974483
  9
$DIMTFILL
 70
     0
  9
$DIMTFILLCLR
 70
     0
  9
$DIMARCSYM
 70
     0
  9
$DIMLTYPE
  6

  9
$DIMLTEX1
  6

  9
$DIMLTEX2
  6

  9
$LUNITS
 70
     2
  9
$LUPREC
 70
     4
  9
$SKETCHINC
 40
0.1
  9
$FILLETRAD
 40
0.0
  9
$AUNITS
 70
     0
  9
$AUPREC
 70
     0
  9
$MENU
  1
.
  9
$ELEVATION
 40
0.0
  9
$PELEVATION
 40
0.0
  9
$THICKNESS
 40
0.0
  9
$LIMCHECK
 70
     0
  9
$CHAMFERA
 40
0.0
  9
$CHAMFERB
 40
0.0
  9
$CHAMFERC
 40
0.0
  9
$CHAMFERD
 40
0.0
  9
$SKPOLY
 70
     0
  9
$TDCREATE
 40
2453354.133792488
  9
$TDUCREATE
 40
2453353.717125822
  9
$TDUPDATE
 40
2447893.459039364
  9
$TDUUPDATE
 40
2447893.042372697
  9
$TDINDWG
 40
0.0436921412
  9
$TDUSRTIMER
 40
0.0436921412
  9
$USRTIMER
 70
     1
  9
$ANGBASE
 50
0.0
  9
$ANGDIR
 70
     0
  9
$PDMODE
 70
     0
  9
$PDSIZE
 40
0.0
  9
$PLINEWID
 40
0.0
  9
$SPLFRAME
 70
     0
  9
$SPLINETYPE
 70
     6
  9
$SPLINESEGS
 70
     8
  9
$HANDSEED
  5
101
  9
$SURFTAB1
 70
     6
  9
$SURFTAB2
 70
     6
  9
$SURFTYPE
 70
     6
  9
$SURFU
 70
     6
  9
$SURFV
 70
     6
  9
$UCSBASE
  2

  9
$UCSNAME
  2

  9
$UCSORG
 10
0.0
 20
0.0
 30
0.0
  9
$UCSXDIR
 10
1.0
 20
0.0
 30
0.0
  9
$UCSYDIR
 10
0.0
 20
1.0
 30
0.0
  9
$UCSORTHOREF
  2

  9
$UCSORTHOVIEW
 70
     0
  9
$UCSORGTOP
 10
0.0
 20
0.0
 30
0.0
  9
$UCSORGBOTTOM
 10
0.0
 20
0.0
 30
0.0
  9
$UCSORGLEFT
 10
0.0
 20
0.0
 30
0.0
  9
$UCSORGRIGHT
 10
0.0
 20
0.0
 30
0.0
  9
$UCSORGFRONT
 10
0.0
 20
0.0
 30
0.0
  9
$UCSORGBACK
 10
0.0
 20
0.0
 30
0.0
  9
$PUCSBASE
  2

  9
$PUCSNAME
  2

  9
$PUCSORG
 10
0.0
 20
0.0
 30
0.0
  9
$PUCSXDIR
 10
1.0
 20
0.0
 30
0.0
  9
$PUCSYDIR
 10
0.0
 20
1.0
 30
0.0
  9
$PUCSORTHOREF
  2

  9
$PUCSORTHOVIEW
 70
     0
  9
$PUCSORGTOP
 10
0.0
 20
0.0
 30
0.0
  9
$PUCSORGBOTTOM
 10
0.0
 20
0.0
 30
0.0
  9
$PUCSORGLEFT
 10
0.0
 20
0.0
 30
0.0
  9
$PUCSORGRIGHT
 10
0.0
 20
0.0
 30
0.0
  9
$PUCSORGFRONT
 10
0.0
 20
0.0
 30
0.0
  9
$PUCSORGBACK
 10
0.0
 20
0.0
 30
0.0
  9
$USERI1
 70
     0
  9
$USERI2
 70
     0
  9
$USERI3
 70
     0
  9
$USERI4
 70
     0
  9
$USERI5
 70
     0
  9
$USERR1
 40
0.0
  9
$USERR2
 40
0.0
  9
$USERR3
 40
0.0
  9
$USERR4
 40
0.0
  9
$USERR5
 40
0.0
  9
$WORLDVIEW
 70
     1
  9
$SHADEDGE
 70
     3
  9
$SHADEDIF
 70
    70
  9
$TILEMODE
 70
     1
  9
$MAXACTVP
 70
    16
  9
$PINSBASE
 10
0.0
 20
0.0
 30
0.0
  9
$PLIMCHECK
 70
     0
  9
$PEXTMIN
 10
0.0
 20
0.0
 30
0.0
  9
$PEXTMAX
 10
0.0
 20
0.0
 30
0.0
  9
$PLIMMIN
 10
0.0
 20
0.0
  9
$PLIMMAX
 10
12.0
 20
9.0
  9
$UNITMODE
 70
     0
  9
$VISRETAIN
 70
     0
  9
$PLINEGEN
 70
     1
  9
$PSLTSCALE
 70
     0
  9
$TREEDEPTH
 70
  3020
  9
$CMLSTYLE
  2
Standard
  9
$CMLJUST
 70
     0
  9
$CMLSCALE
 40
1.0
  9
$PROXYGRAPHICS
 70
     0
  9
$MEASUREMENT
 70
     0
  9
$CELWEIGHT
370
     0
  9
$ENDCAPS
280
     0
  9
$JOINSTYLE
280
     0
  9
$LWDISPLAY
290
     0
  9
$INSUNITS
 70
     0
  9
$HYPERLINKBASE
  1

  9
$STYLESHEET
  1

  9
$XEDIT
290
     0
  9
$CEPSNTYPE
380
     0
  9
$PSTYLEMODE
290
     1
  9
$FINGERPRINTGUID
  2

  9
$VERSIONGUID
  2

  9
$EXTNAMES
290
     1
  9
$PSVPSCALE
 40
0.0
  9
$OLESTARTUP
290
     0
  9
$SORTENTS
280
   127
  9
$INDEXCTL
280
     0
  9
$HIDETEXT
280
     1
  9
$XCLIPFRAME
290
     0
  9
$HALOGAP
280
     0
  9
$OBSCOLOR
 70
   257
  9
$OBSLTYPE
280
     0
  9
$INTERSECTIONDISPLAY
280
     0
  9
$INTERSECTIONCOLOR
 70
   257
  9
$DIMASSOC
280
     2
  9
$PROJECTNAME
  1

  9
$CAMERADISPLAY
290
     0
  9
$LENSLENGTH
 40
50.0
  9
$CAMERAHEIGHT
 40
0.0
  9
$STEPSPERSEC
 40
2.0
  9
$STEPSIZE
 40
6.0
  9
$3DDWFPREC
 40
2.0
  9
$PSOLWIDTH
 40
0.25
  9
$PSOLHEIGHT
 40
4.0
  9
$LOFTANG1
 40
1.570796326794897
  9
$LOFTANG2
 40
1.570796326794897
  9
$LOFTMAG1
 40
0.0
  9
$LOFTMAG2
 40
0.0
  9
$LOFTPARAM
 70
     7
  9
$LOFTNORMALS
280
     1
  9
$LATITUDE
 40
37.795
  9
$LONGITUDE
 40
-122.394
  9
$NORTHDIRECTION
 40
0.0
  9
$TIMEZONE
 70
 -8000
  9
$LIGHTGLYPHDISPLAY
280
     1
  9
$TILEMODELIGHTSYNCH
280
     1
  9
$SOLIDHIST
280
     1
  9
$SHOWHIST
280
     1
  9
$DWFFRAME
280
     2
  9
$DGNFRAME
280
     2
  9
$REALWORLDSCALE
290
     1
  9
$INTERFERECOLOR
 62
   256
  9
$CSHADOW
280
     0
  9
$SHADOWPLANELOCATION
 40
0.0
  0
ENDSEC
  0
SECTION
  2
CLASSES
  0
CLASS
  1
ACDBDICTIONARYWDFLT
  2
AcDbDictionaryWithDefault
  3
ObjectDBX Classes
 90
        0
 91
        4
280
     0
281
     0
  0
CLASS
  1
ACDBPLACEHOLDER
  2
AcDbPlaceHolder
  3
ObjectDBX Classes
 90
        0
 91
        1
280
     0
281
     0
  0
CLASS
  1
LAYOUT
  2
AcDbLayout
  3
ObjectDBX Classes
 90
        0
 91
        1
280
     0
281
     0
  0
CLASS
  1
DICTIONARYVAR
  2
AcDbDictionaryVar
  3
ObjectDBX Classes
 90
        0
 91
        4
280
     0
281
     0
  0
CLASS
  1
TABLESTYLE
  2
AcDbTableStyle
  3
ObjectDBX Classes
 90
     4095
 91
        4
280
     0
281
     0
  0
CLASS
  1
SCALE
  2
AcDbScale
  3
ObjectDBX Classes
 90
     1153
 91
        4
280
     0
281
     0
  0
ENDSEC
  0
SECTION
  2
TABLES
  0
TABLE
  2
VPORT
  5
8
330
0
100
AcDbSymbolTable
 70
     2
  0
VPORT
  5
97
330
8
100
AcDbSymbolTableRecord
100
AcDbViewportTableRecord
  2
*ACTIVE
 70
     0
 10
0.0
 20
0.0
 11
1.0
 21
1.0
 12
-12.63344328012317
 22
339.5837506353855
 13
0.0
 23
0.0
 14
0.5
 24
0.5
 15
0.5
 25
0.5
 16
0.0
 26
0.0
 36
1.0
 17
-5613365.750017405
 27
-6877451.83375
 37
0.0
 40
1434.630000778008
 41
1.85119047619
 42
50.0
 43
0.0
 44
0.0
 50
0.0
 51
0.0
 71
    16
 72
   100
 73
     1
 74
     1
 75
     0
 76
     0
 77
     0
 78
     0
281
     0
 65
     0
110
0.0
120
0.0
130
0.0
111
1.0
121
0.0
131
0.0
112
0.0
122
1.0
132
0.0
 79
     0
146
0.0
 60
     3
 61
     5
292
     1
282
     1
141
0.0
142
0.0
 63
   256
  0
ENDTAB
  0
TABLE
  2
LTYPE
  5
5
330
0
100
AcDbSymbolTable
 70
    16
  0
LTYPE
  5
14
330
5
100
AcDbSymbolTableRecord
100
AcDbLinetypeTableRecord
  2
ByBlock
 70
     0
  3

 72
    65
 73
     0
 40
0.0
  0
LTYPE
  5
15
330
5
100
AcDbSymbolTableRecord
100
AcDbLinetypeTableRecord
  2
ByLayer
 70
     0
  3

 72
    65
 73
     0
 40
0.0
  0
LTYPE
  5
16
330
5
100
AcDbSymbolTableRecord
100
AcDbLinetypeTableRecord
  2
Continuous
 70
     0
  3
Solid line
 72
    65
 73
     0
 40
0.0
  0
LTYPE
  5
C5
330
5
100
AcDbSymbolTableRecord
100
AcDbLinetypeTableRecord
  2
BORDER
 70
     0
  3
BORDER
 72
    65
 73
     6
 40
1.75
 49
0.5
 74
     4
 75
     0
340
0
 46
1.0
 50
0.0
 44
0.0
 45
0.0
 49
-0.25
 74
     4
 75
     0
340
0
 46
1.0
 50
0.0
 44
0.0
 45
0.0
 49
0.5
 74
     4
 75
     0
340
0
 46
1.0
 50
0.0
 44
0.0
 45
0.0
 49
-0.25
 74
     4
 75
     0
340
0
 46
1.0
 50
0.0
 44
0.0
 45
0.0
 49
0.0
 74
     4
 75
     0
340
0
 46
1.0
 50
0.0
 44
0.0
 45
0.0
 49
-0.25
 74
     4
 75
     0
340
0
 46
1.0
 50
0.0
 44
0.0
 45
0.0
  0
LTYPE
  5
C6
330
5
100
AcDbSymbolTableRecord
100
AcDbLinetypeTableRecord
  2
CENTER
 70
     0
  3
CENTER
 72
    65
 73
     4
 40
2.0
 49
1.25
 74
     4
 75
     0
340
0
 46
1.0
 50
0.0
 44
0.0
 45
0.0
 49
-0.25
 74
     4
 75
     0
340
0
 46
1.0
 50
0.0
 44
0.0
 45
0.0
 49
0.25
 74
     4
 75
     0
340
0
 46
1.0
 50
0.0
 44
0.0
 45
0.0
 49
-0.25
 74
     4
 75
     0
340
0
 46
1.0
 50
0.0
 44
0.0
 45
0.0
  0
LTYPE
  5
C7
330
5
100
AcDbSymbolTableRecord
100
AcDbLinetypeTableRecord
  2
DASHDOT
 70
     0
  3
DASHDOT
 72
    65
 73
     4
 40
1.0
 49
0.5
 74
     4
 75
     0
340
0
 46
1.0
 50
0.0
 44
0.0
 45
0.0
 49
-0.25
 74
     4
 75
     0
340
0
 46
1.0
 50
0.0
 44
0.0
 45
0.0
 49
0.0
 74
     4
 75
     0
340
0
 46
1.0
 50
0.0
 44
0.0
 45
0.0
 49
-0.25
 74
     4
 75
     0
340
0
 46
1.0
 50
0.0
 44
0.0
 45
0.0
  0
LTYPE
  5
C8
330
5
100
AcDbSymbolTableRecord
100
AcDbLinetypeTableRecord
  2
DASHED
 70
     0
  3
DASHED
 72
    65
 73
     2
 40
0.75
 49
0.5
 74
     4
 75
     0
340
0
 46
1.0
 50
0.0
 44
0.0
 45
0.0
 49
-0.25
 74
     4
 75
     0
340
0
 46
1.0
 50
0.0
 44
0.0
 45
0.0
  0
LTYPE
  5
C9
330
5
100
AcDbSymbolTableRecord
100
AcDbLinetypeTableRecord
  2
DIVIDE
 70
     0
  3
DIVIDE
 72
    65
 73
     6
 40
1.25
 49
0.5
 74
     4
 75
     0
340
0
 46
1.0
 50
0.0
 44
0.0
 45
0.0
 49
-0.25
 74
     4
 75
     0
340
0
 46
1.0
 50
0.0
 44
0.0
 45
0.0
 49
0.0
 74
     4
 75
     0
340
0
 46
1.0
 50
0.0
 44
0.0
 45
0.0
 49
-0.25
 74
     4
 75
     0
340
0
 46
1.0
 50
0.0
 44
0.0
 45
0.0
 49
0.0
 74
     4
 75
     0
340
0
 46
1.0
 50
0.0
 44
0.0
 45
0.0
 49
-0.25
 74
     4
 75
     0
340
0
 46
1.0
 50
0.0
 44
0.0
 45
0.0
  0
LTYPE
  5
CA
330
5
100
AcDbSymbolTableRecord
100
AcDbLinetypeTableRecord
  2
DOT
 70
     0
  3
DOT
 72
    65
 73
     2
 40
0.25
 49
0.0
 74
     4
 75
     0
340
0
 46
1.0
 50
0.0
 44
0.0
 45
0.0
 49
-0.25
 74
     4
 75
     0
340
0
 46
1.0
 50
0.0
 44
0.0
 45
0.0
  0
LTYPE
  5
CB
330
5
100
AcDbSymbolTableRecord
100
AcDbLinetypeTableRecord
  2
HIDDEN
 70
     0
  3
HIDDEN
 72
    65
 73
     2
 40
0.375
 49
0.25
 74
     4
 75
     0
340
0
 46
1.0
 50
0.0
 44
0.0
 45
0.0
 49
-0.125
 74
     4
 75
     0
340
0
 46
1.0
 50
0.0
 44
0.0
 45
0.0
  0
LTYPE
  5
CC
330
5
100
AcDbSymbolTableRecord
100
AcDbLinetypeTableRecord
  2
PHANTOM
 70
     0
  3
PHANTOM
 72
    65
 73
     6
 40
2.5
 49
1.25
 74
     4
 75
     0
340
0
 46
1.0
 50
0.0
 44
0.0
 45
0.0
 49
-0.25
 74
     4
 75
     0
340
0
 46
1.0
 50
0.0
 44
0.0
 45
0.0
 49
0.25
 74
     4
 75
     0
340
0
 46
1.0
 50
0.0
 44
0.0
 45
0.0
 49
-0.25
 74
     4
 75
     0
340
0
 46
1.0
 50
0.0
 44
0.0
 45
0.0
 49
0.25
 74
     4
 75
     0
340
0
 46
1.0
 50
0.0
 44
0.0
 45
0.0
 49
-0.25
 74
     4
 75
     0
340
0
 46
1.0
 50
0.0
 44
0.0
 45
0.0
  0
LTYPE
  5
CD
330
5
100
AcDbSymbolTableRecord
100
AcDbLinetypeTableRecord
  2
$INVISIBLE
 70
     0
  3
$INVISIBLE
 72
    65
 73
     2
 40
200.0
 49
-100.0
 74
     4
 75
     0
340
0
 46
1.0
 50
0.0
 44
0.0
 45
0.0
 49
-100.0
 74
     4
 75
     0
340
0
 46
1.0
 50
0.0
 44
0.0
 45
0.0
  0
LTYPE
  5
CE
330
5
100
AcDbSymbolTableRecord
100
AcDbLinetypeTableRecord
  2
DCTYPE1
 70
     0
  3
DCTYPE1
 72
    65
 73
     8
 40
2.0
 49
0.5
 74
     4
 75
     0
340
0
 46
1.0
 50
0.0
 44
0.0
 45
0.0
 49
-0.25
 74
     4
 75
     0
340
0
 46
1.0
 50
0.0
 44
0.0
 45
0.0
 49
0.125
 74
     4
 75
     0
340
0
 46
1.0
 50
0.0
 44
0.0
 45
0.0
 49
-0.25
 74
     4
 75
     0
340
0
 46
1.0
 50
0.0
 44
0.0
 45
0.0
 49
0.25
 74
     4
 75
     0
340
0
 46
1.0
 50
0.0
 44
0.0
 45
0.0
 49
-0.25
 74
     4
 75
     0
340
0
 46
1.0
 50
0.0
 44
0.0
 45
0.0
 49
0.125
 74
     4
 75
     0
340
0
 46
1.0
 50
0.0
 44
0.0
 45
0.0
 49
-0.25
 74
     4
 75
     0
340
0
 46
1.0
 50
0.0
 44
0.0
 45
0.0
  0
LTYPE
  5
CF
330
5
100
AcDbSymbolTableRecord
100
AcDbLinetypeTableRecord
  2
DCTYPE2
 70
     0
  3
DCTYPE2
 72
    65
 73
     6
 40
2.05
 49
1.0
 74
     4
 75
     0
340
0
 46
1.0
 50
0.0
 44
0.0
 45
0.0
 49
-0.3
 74
     4
 75
     0
340
0
 46
1.0
 50
0.0
 44
0.0
 45
0.0
 49
0.15
 74
     4
 75
     0
340
0
 46
1.0
 50
0.0
 44
0.0
 45
0.0
 49
-0.15
 74
     4
 75
     0
340
0
 46
1.0
 50
0.0
 44
0.0
 45
0.0
 49
0.15
 74
     4
 75
     0
340
0
 46
1.0
 50
0.0
 44
0.0
 45
0.0
 49
-0.3
 74
     4
 75
     0
340
0
 46
1.0
 50
0.0
 44
0.0
 45
0.0
  0
LTYPE
  5
D0
330
5
100
AcDbSymbolTableRecord
100
AcDbLinetypeTableRecord
  2
DCTYPE3
 70
     0
  3
DCTYPE3
 72
    65
 73
     6
 40
2.5
 49
0.8
 74
     4
 75
     0
340
0
 46
1.0
 50
0.0
 44
0.0
 45
0.0
 49
-0.2
 74
     4
 75
     0
340
0
 46
1.0
 50
0.0
 44
0.0
 45
0.0
 49
0.8
 74
     4
 75
     0
340
0
 46
1.0
 50
0.0
 44
0.0
 45
0.0
 49
-0.2
 74
     4
 75
     0
340
0
 46
1.0
 50
0.0
 44
0.0
 45
0.0
 49
0.3
 74
     4
 75
     0
340
0
 46
1.0
 50
0.0
 44
0.0
 45
0.0
 49
-0.2
 74
     4
 75
     0
340
0
 46
1.0
 50
0.0
 44
0.0
 45
0.0
  0
LTYPE
  5
D1
330
5
100
AcDbSymbolTableRecord
100
AcDbLinetypeTableRecord
  2
DCTYPE4
 70
     0
  3
DCTYPE4
 72
    65
 73
    10
 40
3.969999999999999
 49
1.75
 74
     4
 75
     0
340
0
 46
1.0
 50
0.0
 44
0.0
 45
0.0
 49
-0.3
 74
     4
 75
     0
340
0
 46
1.0
 50
0.0
 44
0.0
 45
0.0
 49
0.3
 74
     4
 75
     0
340
0
 46
1.0
 50
0.0
 44
0.0
 45
0.0
 49
-0.3
 74
     4
 75
     0
340
0
 46
1.0
 50
0.0
 44
0.0
 45
0.0
 49
0.06
 74
     4
 75
     0
340
0
 46
1.0
 50
0.0
 44
0.0
 45
0.0
 49
-0.3
 74
     4
 75
     0
340
0
 46
1.0
 50
0.0
 44
0.0
 45
0.0
 49
0.06
 74
     4
 75
     0
340
0
 46
1.0
 50
0.0
 44
0.0
 45
0.0
 49
-0.3
 74
     4
 75
     0
340
0
 46
1.0
 50
0.0
 44
0.0
 45
0.0
 49
0.3
 74
     4
 75
     0
340
0
 46
1.0
 50
0.0
 44
0.0
 45
0.0
 49
-0.3
 74
     4
 75
     0
340
0
 46
1.0
 50
0.0
 44
0.0
 45
0.0
  0
LTYPE
  5
D2
330
5
100
AcDbSymbolTableRecord
100
AcDbLinetypeTableRecord
  2
$SNAPEXT
 70
     0
  3
$SNAPEXT
 72
    65
 73
     2
 40
0.04
 49
0.02
 74
     4
 75
     0
340
0
 46
1.0
 50
0.0
 44
0.0
 45
0.0
 49
-0.02
 74
     4
 75
     0
340
0
 46
1.0
 50
0.0
 44
0.0
 45
0.0
  0
LTYPE
  5
D3
330
5
100
AcDbSymbolTableRecord
100
AcDbLinetypeTableRecord
  2
$AUXILIARY
 70
     0
  3
$AUXILIARY
 72
    65
 73
     2
 40
0.1
 49
0.05
 74
     4
 75
     0
340
0
 46
1.0
 50
0.0
 44
0.0
 45
0.0
 49
-0.05
 74
     4
 75
     0
340
0
 46
1.0
 50
0.0
 44
0.0
 45
0.0
  0
ENDTAB
  0
TABLE
  2
LAYER
  5
2
330
0
100
AcDbSymbolTable
 70
     5
  0
LAYER
  5
10
330
2
100
AcDbSymbolTableRecord
100
AcDbLayerTableRecord
  2
0
 70
     0
 62
     7
  6
Continuous
370
     0
390
F
347
0
1001
TCAD
1000
TCW_LAYER_ORDER
1002
{
1071
        0
1002
}
  0
LAYER
  5
33
330
2
100
AcDbSymbolTableRecord
100
AcDbLayerTableRecord
  2
LAYER2
 70
     0
 62
     7
  6
Continuous
370
     0
390
F
347
0
1001
TCAD
1000
TCW_LAYER_ORDER
1002
{
1071
        0
1002
}
  0
LAYER
  5
34
330
2
100
AcDbSymbolTableRecord
100
AcDbLayerTableRecord
  2
LAYER3
 70
     0
 62
     7
  6
Continuous
370
     0
390
F
347
0
1001
TCAD
1000
TCW_LAYER_ORDER
1002
{
1071
        0
1002
}
  0
LAYER
  5
35
330
2
100
AcDbSymbolTableRecord
100
AcDbLayerTableRecord
  2
LAYER4
 70
     0
 62
     7
  6
Continuous
370
     0
390
F
347
0
1001
TCAD
1000
TCW_LAYER_ORDER
1002
{
1071
        0
1002
}
  0
LAYER
  5
36
330
2
100
AcDbSymbolTableRecord
100
AcDbLayerTableRecord
  2
LAYER6
 70
     0
 62
     7
  6
Continuous
370
     0
390
F
347
0
1001
TCAD
1000
TCW_LAYER_ORDER
1002
{
1071
        0
1002
}
  0
ENDTAB
  0
TABLE
  2
STYLE
  5
3
330
0
100
AcDbSymbolTable
 70
    18
  0
STYLE
  5
11
330
3
100
AcDbSymbolTableRecord
100
AcDbTextStyleTableRecord
  2
Standard
 70
     0
 40
0.0
 41
1.0
 50
0.0
 71
     0
 42
0.00000006
  3
TXT.SHX
  4

  0
STYLE
  5
38
330
3
100
AcDbSymbolTableRecord
100
AcDbTextStyleTableRecord
  2
_TCW_TXTSTY_1
 70
     0
 40
0.0
 41
0.65
 50
0.0
 71
     0
 42
25.0
  3
TXT.SHX
  4

  0
STYLE
  5
3A
330
3
100
AcDbSymbolTableRecord
100
AcDbTextStyleTableRecord
  2
_TCW_TXTSTY_2
 70
     0
 40
0.0
 41
0.71
 50
0.0
 71
     0
 42
25.0
  3
TXT.SHX
  4

  0
STYLE
  5
3C
330
3
100
AcDbSymbolTableRecord
100
AcDbTextStyleTableRecord
  2
_TCW_TXTSTY_3
 70
     0
 40
0.0
 41
0.67
 50
0.0
 71
     0
 42
25.0
  3
TXT.SHX
  4

  0
STYLE
  5
43
330
3
100
AcDbSymbolTableRecord
100
AcDbTextStyleTableRecord
  2
_TCW_TXTSTY_4
 70
     0
 40
0.0
 41
0.68
 50
0.0
 71
     0
 42
25.0
  3
TXT.SHX
  4

  0
STYLE
  5
4A
330
3
100
AcDbSymbolTableRecord
100
AcDbTextStyleTableRecord
  2
_TCW_TXTSTY_5
 70
     0
 40
0.0
 41
0.66
 50
0.0
 71
     0
 42
25.0
  3
TXT.SHX
  4

  0
STYLE
  5
4E
330
3
100
AcDbSymbolTableRecord
100
AcDbTextStyleTableRecord
  2
_TCW_TXTSTY_6
 70
     0
 40
0.0
 41
0.9
 50
0.0
 71
     0
 42
25.0
  3
TXT.SHX
  4

  0
STYLE
  5
52
330
3
100
AcDbSymbolTableRecord
100
AcDbTextStyleTableRecord
  2
_TCW_TXTSTY_7
 70
     0
 40
0.0
 41
0.53
 50
0.0
 71
     0
 42
25.0
  3
TXT.SHX
  4

  0
STYLE
  5
54
330
3
100
AcDbSymbolTableRecord
100
AcDbTextStyleTableRecord
  2
_TCW_TXTSTY_8
 70
     0
 40
0.0
 41
0.6
 50
0.0
 71
     0
 42
25.0
  3
TXT.SHX
  4

  0
STYLE
  5
56
330
3
100
AcDbSymbolTableRecord
100
AcDbTextStyleTableRecord
  2
_TCW_TXTSTY_9
 70
     0
 40
0.0
 41
0.56
 50
0.0
 71
     0
 42
25.0
  3
TXT.SHX
  4

  0
STYLE
  5
58
330
3
100
AcDbSymbolTableRecord
100
AcDbTextStyleTableRecord
  2
_TCW_TXTSTY_A
 70
     0
 40
0.0
 41
0.7
 50
0.0
 71
     0
 42
15.0
  3
TXT.SHX
  4

  0
STYLE
  5
C3
330
3
100
AcDbSymbolTableRecord
100
AcDbTextStyleTableRecord
  2
_TCW_TXTSTY_B
 70
     0
 40
0.0
 41
0.46
 50
0.0
 71
     0
 42
15.0
  3
TXT.SHX
  4

  0
STYLE
  5
5D
330
3
100
AcDbSymbolTableRecord
100
AcDbTextStyleTableRecord
  2
_TCW_TXTSTY_C
 70
     0
 40
0.0
 41
0.73
 50
0.0
 71
     0
 42
25.0
  3
TXT.SHX
  4

  0
STYLE
  5
88
330
3
100
AcDbSymbolTableRecord
100
AcDbTextStyleTableRecord
  2
_TCW_TXTSTY_D
 70
     0
 40
0.0
 41
0.78
 50
0.0
 71
     0
 42
25.0
  3
TXT.SHX
  4

  0
STYLE
  5
90
330
3
100
AcDbSymbolTableRecord
100
AcDbTextStyleTableRecord
  2
_TCW_TXTSTY_E
 70
     0
 40
0.0
 41
0.92
 50
0.0
 71
     0
 42
25.0
  3
TXT.SHX
  4

  0
STYLE
  5
C4
330
3
100
AcDbSymbolTableRecord
100
AcDbTextStyleTableRecord
  2
_TCW_TXTSTY_F
 70
     0
 40
0.0
 41
0.74
 50
0.0
 71
     0
 42
30.0
  3
TXT.SHX
  4

  0
STYLE
  5
94
330
3
100
AcDbSymbolTableRecord
100
AcDbTextStyleTableRecord
  2
_TCW_TXTSTY_10
 70
     0
 40
0.0
 41
0.82
 50
0.0
 71
     0
 42
25.0
  3
TXT.SHX
  4

  0
STYLE
  5
96
330
3
100
AcDbSymbolTableRecord
100
AcDbTextStyleTableRecord
  2
_TCW_TXTSTY_11
 70
     0
 40
0.0
 41
0.87
 50
0.0
 71
     0
 42
25.0
  3
TXT.SHX
  4

  0
ENDTAB
  0
TABLE
  2
VIEW
  5
6
330
0
100
AcDbSymbolTable
 70
     1
  0
VIEW
  5
37
330
6
100
AcDbSymbolTableRecord
100
AcDbViewTableRecord
  2
View_0
 70
     0
 40
8.267716535433
 10
5.846456692913
 20
4.133858267717
 41
11.692913385827
 11
0.0
 21
0.0
 31
1.0
 12
0.0
 22
0.0
 32
0.0
 42
45.247172312671
 43
0.0
 44
0.0
 50
0.0
 71
     0
281
     0
 72
     0
 73
     0
  0
ENDTAB
  0
TABLE
  2
UCS
  5
7
330
0
100
AcDbSymbolTable
 70
     0
  0
ENDTAB
  0
TABLE
  2
APPID
  5
9
330
0
100
AcDbSymbolTable
 70
     2
  0
APPID
  5
12
330
9
100
AcDbSymbolTableRecord
100
AcDbRegAppTableRecord
  2
ACAD
 70
     0
  0
APPID
  5
C2
330
9
100
AcDbSymbolTableRecord
100
AcDbRegAppTableRecord
  2
TCAD
 70
     0
  0
ENDTAB
  0
TABLE
  2
DIMSTYLE
  5
A
330
0
100
AcDbSymbolTable
 70
     1
100
AcDbDimStyleTable
  0
DIMSTYLE
105
27
330
A
100
AcDbSymbolTableRecord
100
AcDbDimStyleTableRecord
  2
Standard
 70
     0
  3
<>
  4
<>
 45
0.0000001
148
0.0000001
179
     4
340
11
  0
ENDTAB
  0
TABLE
  2
BLOCK_RECORD
  5
1
330
0
100
AcDbSymbolTable
 70
     0
  0
BLOCK_RECORD
  5
1F
102
{ACAD_XDICTIONARY
360
FE
102
}
330
1
100
AcDbSymbolTableRecord
100
AcDbBlockTableRecord
  2
*Model_Space
340
22
 70
     0
280
     1
281
     0
  0
BLOCK_RECORD
  5
73
330
1
100
AcDbSymbolTableRecord
100
AcDbBlockTableRecord
  2
*Paper_Space
340
F4
 70
     0
280
     1
281
     0
  0
ENDTAB
  0
ENDSEC
  0
SECTION
  2
BLOCKS
  0
BLOCK
  5
20
330
1F
100
AcDbEntity
  8
0
100
AcDbBlockBegin
  2
*Model_Space
 70
     0
 10
0.0
 20
0.0
 30
0.0
  3
*Model_Space
  1

  0
ENDBLK
  5
21
330
1F
100
AcDbEntity
  8
0
100
AcDbBlockEnd
  0
BLOCK
  5
75
330
73
100
AcDbEntity
 67
     1
  8
0
100
AcDbBlockBegin
  2
*Paper_Space
 70
     0
 10
0.0
 20
0.0
 30
0.0
  3
*Paper_Space
  1

  0
ENDBLK
  5
76
330
73
100
AcDbEntity
 67
     1
  8
0
100
AcDbBlockEnd
  0
ENDSEC
  0
SECTION
  2
ENTITIES
  0
TEXT
  5
39
330
1F
100
AcDbEntity
  8
0
  6
Continuous
 62
     7
100
AcDbText
 10
-5613558.0
 20
-6877305.999999746
 30
0.0
 40
25.000000762939
  1
held in position by plastic wheel type supports
 41
0.6608613454914344
  7
_TCW_TXTSTY_1
 72
     5
 11
-5612856.000014328
 21
-6877305.999999746
 31
0.0
100
AcDbText
1001
TCAD
1000
TCW40_TEXT
1002
{
1000
txt.shx
1070
     0
1070
  1025
1002
}
  0
TEXT
  5
3B
330
1F
100
AcDbEntity
  8
0
  6
Continuous
 62
     7
100
AcDbText
 10
-5613559.0
 20
-6877150.999999746
 30
0.0
 40
25.000000762939
  1
390 x 190 x 190
 41
0.7318518504950428
  7
_TCW_TXTSTY_2
 72
     5
 11
-5613311.99999292
 21
-6877150.999999746
 31
0.0
100
AcDbText
1001
TCAD
1000
TCW40_TEXT
1002
{
1000
txt.shx
1070
     0
1070
  1025
1002
}
  0
TEXT
  5
3D
330
1F
100
AcDbEntity
  8
0
  6
Continuous
 62
     7
100
AcDbText
 10
-5613559.0
 20
-6877188.499999746
 30
0.0
 40
25.000000762939
  1
concrete lintel block (2020)
 41
0.677827668300268
  7
_TCW_TXTSTY_3
 72
     5
 11
-5613143.999997418
 21
-6877188.499999746
 31
0.0
100
AcDbText
1001
TCAD
1000
TCW40_TEXT
1002
{
1000
txt.shx
1070
     0
1070
  1025
1002
}
  0
LWPOLYLINE
  5
3E
330
1F
100
AcDbEntity
  8
0
  6
Continuous
 62
     7
100
AcDbPolyline
 90
        3
 70
     0
 43
0.0
 10
-5613567.0
 20
-6877138.5
 10
-5613657.0
 20
-6877138.5
 10
-5613793.0
 20
-6877160.5
1001
ACAD
1000
TCW40_DEV_WIDTH
1002
{
1040
-3.0
1002
}
  0
LWPOLYLINE
  5
3F
330
1F
100
AcDbEntity
  8
0
  6
Continuous
 62
     7
100
AcDbPolyline
 90
        4
 70
     0
 43
0.0
 10
-5613767.5
 20
-6877161.5
 10
-5613793.0
 20
-6877160.5
 10
-5613769.0
 20
-6877151.5
 10
-5613767.5
 20
-6877161.5
1001
ACAD
1000
TCW40_DEV_WIDTH
1002
{
1040
-3.0
1002
}
  0
LWPOLYLINE
  5
40
330
1F
100
AcDbEntity
  8
0
  6
Continuous
 62
     7
100
AcDbPolyline
 90
        3
 70
     0
 43
0.0
 10
-5613566.0
 20
-6877255.5
 10
-5613650.0
 20
-6877255.5
 10
-5613852.0
 20
-6877221.5
1001
ACAD
1000
TCW40_DEV_WIDTH
1002
{
1040
-3.0
1002
}
  0
LWPOLYLINE
  5
41
330
1F
100
AcDbEntity
  8
0
  6
Continuous
 62
     7
100
AcDbPolyline
 90
        4
 70
     0
 43
0.0
 10
-5613828.0
 20
-6877230.5
 10
-5613852.0
 20
-6877221.5
 10
-5613826.5
 20
-6877220.5
 10
-5613828.0
 20
-6877230.5
1001
ACAD
1000
TCW40_DEV_WIDTH
1002
{
1040
-3.0
1002
}
  0
TEXT
  5
42
330
1F
100
AcDbEntity
  8
0
  6
Continuous
 62
     7
100
AcDbText
 10
-5613559.0
 20
-6877040.499999746
 30
0.0
 40
25.000000762939
  1
390 x 190 x 190
 41
0.7318518504950428
  7
_TCW_TXTSTY_2
 72
     5
 11
-5613311.99999292
 21
-6877040.499999746
 31
0.0
100
AcDbText
1001
TCAD
1000
TCW40_TEXT
1002
{
1000
txt.shx
1070
     0
1070
  1025
1002
}
  0
TEXT
  5
44
330
1F
100
AcDbEntity
  8
0
  6
Continuous
 62
     7
100
AcDbText
 10
-5613559.0
 20
-6877077.999999746
 30
0.0
 40
25.000000762939
  1
concrete H block (2048) or double U block (2091)
 41
0.6877971377549443
  7
_TCW_TXTSTY_4
 72
     5
 11
-5612799.499987456
 21
-6877077.999999746
 31
0.0
100
AcDbText
1001
TCAD
1000
TCW40_TEXT
1002
{
1000
txt.shx
1070
     0
1070
  1025
1002
}
  0
LINE
  5
45
330
1F
100
AcDbEntity
  8
0
  6
Continuous
 62
     7
100
AcDbLine
 10
-5613567.0
 20
-6877028.5
 30
0.0
 11
-5613795.0
 21
-6877028.5
 31
0.0
1001
ACAD
1000
TCW40_DEV_WIDTH
1002
{
1040
-3.0
1002
}
  0
LWPOLYLINE
  5
46
330
1F
100
AcDbEntity
  8
0
  6
Continuous
 62
     7
100
AcDbPolyline
 90
        4
 70
     0
 43
0.0
 10
-5613770.0
 20
-6877033.5
 10
-5613795.0
 20
-6877028.5
 10
-5613770.0
 20
-6877023.5
 10
-5613770.0
 20
-6877033.5
1001
ACAD
1000
TCW40_DEV_WIDTH
1002
{
1040
-3.0
1002
}
  0
LWPOLYLINE
  5
47
330
1F
100
AcDbEntity
  8
0
  6
Continuous
 62
     7
100
AcDbPolyline
 90
        3
 70
     0
 43
0.0
 10
-5613569.0
 20
-6876880.5
 10
-5613681.0
 20
-6876880.5
 10
-5613851.0
 20
-6876955.5
1001
ACAD
1000
TCW40_DEV_WIDTH
1002
{
1040
-3.0
1002
}
  0
LWPOLYLINE
  5
48
330
1F
100
AcDbEntity
  8
0
  6
Continuous
 62
     7
100
AcDbPolyline
 90
        4
 70
     0
 43
0.0
 10
-5613826.0
 20
-6876950.0
 10
-5613851.0
 20
-6876955.5
 10
-5613830.0
 20
-6876941.0
 10
-5613826.0
 20
-6876950.0
1001
ACAD
1000
TCW40_DEV_WIDTH
1002
{
1040
-3.0
1002
}
  0
TEXT
  5
49
330
1F
100
AcDbEntity
  8
0
  6
Continuous
 62
     7
100
AcDbText
 10
-5613561.0
 20
-6876929.499999746
 30
0.0
 40
25.000000762939
  1
positioned on the webs of concrete blocks and held apart by
 41
0.656133454280704
  7
_TCW_TXTSTY_1
 72
     5
 11
-5612637.000034811
 21
-6876929.499999746
 31
0.0
100
AcDbText
1001
TCAD
1000
TCW40_TEXT
1002
{
1000
txt.shx
1070
     0
1070
  1025
1002
}
  0
TEXT
  5
4B
330
1F
100
AcDbEntity
  8
0
  6
Continuous
 62
     7
100
AcDbText
 10
-5613561.0
 20
-6876966.999999746
 30
0.0
 40
25.000000762939
  1
plastic wheel type supports
 41
0.6688000061645866
  7
_TCW_TXTSTY_5
 72
     5
 11
-5613142.999983391
 21
-6876966.999999746
 31
0.0
100
AcDbText
1001
TCAD
1000
TCW40_TEXT
1002
{
1000
txt.shx
1070
     0
1070
  1025
1002
}
  0
TEXT
  5
4C
330
1F
100
AcDbEntity
  8
0
  6
Continuous
 62
     7
100
AcDbText
 10
-5613555.5
 20
-6876895.5
 30
0.0
 40
25.000000762939
  1
2 N20 (minimum cover, c = 20, effective depth, (d = 125)
 41
0.6920182121357
  7
_TCW_TXTSTY_4
 72
     5
 11
-5612681.999985075
 21
-6876895.5
 31
0.0
100
AcDbText
1001
TCAD
1000
TCW40_TEXT
1002
{
1000
txt.shx
1070
     0
1070
  1025
1002
}
  0
TEXT
  5
4D
330
1F
100
AcDbEntity
  8
0
  6
Continuous
 62
     7
100
AcDbText
 10
-5613552.0
 20
-6877266.0
 30
0.0
 40
25.000000762939
  1
2 N20 (minimum cover, c = 20, effective depth, (d = 125)
 41
0.6920182121357
  7
_TCW_TXTSTY_4
 72
     5
 11
-5612678.499985075
 21
-6877266.0
 31
0.0
100
AcDbText
1001
TCAD
1000
TCW40_TEXT
1002
{
1000
txt.shx
1070
     0
1070
  1025
1002
}
  0
TEXT
  5
4F
330
1F
100
AcDbEntity
  8
0
  6
Continuous
 62
     7
100
AcDbText
 10
-5614094.5
 20
-6876433.999999746
 30
0.0
 40
25.000000762939
  1
Notes:
 41
0.963999973121721
  7
_TCW_TXTSTY_6
 72
     5
 11
-5613973.999999682
 21
-6876433.999999746
 31
0.0
100
AcDbText
1001
TCAD
1000
TCW40_TEXT
1002
{
1000
txt.shx
1070
     0
1070
  1025
1002
}
  0
TEXT
  5
50
330
1F
100
AcDbEntity
  8
0
  6
Continuous
 62
     7
100
AcDbText
 10
-5614094.5
 20
-6876471.499999746
 30
0.0
 40
25.000000762939
  1
Concrete blocks f'  15 MPa
 41
0.6877567599993589
  7
_TCW_TXTSTY_3
 72
     5
 11
-5613675.999998769
 21
-6876471.499999746
 31
0.0
100
AcDbText
1001
TCAD
1000
TCW40_TEXT
1002
{
1000
txt.shx
1070
     0
1070
  1025
1002
}
  0
TEXT
  5
51
330
1F
100
AcDbEntity
  8
0
  6
Continuous
 62
     7
100
AcDbText
 10
-5614094.5
 20
-6876583.999999746
 30
0.0
 40
25.000000762939
  1
Reinforcement shall be held in position by
 41
0.6759135383997187
  7
_TCW_TXTSTY_3
 72
     5
 11
-5613461.000016802
 21
-6876583.999999746
 31
0.0
100
AcDbText
1001
TCAD
1000
TCW40_TEXT
1002
{
1000
txt.shx
1070
     0
1070
  1025
1002
}
  0
TEXT
  5
53
330
1F
100
AcDbEntity
  8
0
  6
Continuous
 62
     7
100
AcDbText
 10
-5614094.5
 20
-6876621.999999746
 30
0.0
 40
25.000000762939
  1
        - steel ligatures; or
 41
0.4133333238972434
  7
_TCW_TXTSTY_7
 72
     5
 11
-5613737.999997259
 21
-6876621.999999746
 31
0.0
100
AcDbText
1001
TCAD
1000
TCW40_TEXT
1002
{
1000
txt.shx
1070
     0
1070
  1025
1002
}
  0
TEXT
  5
55
330
1F
100
AcDbEntity
  8
0
  6
Continuous
 62
     7
100
AcDbText
 10
-5614091.5
 20
-6876658.999999746
 30
0.0
 40
25.000000762939
  1
        - steel hangers; or
 41
0.4633204675917543
  7
_TCW_TXTSTY_8
 72
     5
 11
-5613701.499984503
 21
-6876658.999999746
 31
0.0
100
AcDbText
1001
TCAD
1000
TCW40_TEXT
1002
{
1000
txt.shx
1070
     0
1070
  1025
1002
}
  0
TEXT
  5
57
330
1F
100
AcDbEntity
  8
0
  6
Continuous
 62
     7
100
AcDbText
 10
-5614094.5
 20
-6876696.499999746
 30
0.0
 40
25.000000762939
  1
        - plastic wheel type support
 41
0.4614285411489813
  7
_TCW_TXTSTY_9
 72
     5
 11
-5613610.000017008
 21
-6876696.499999746
 31
0.0
100
AcDbText
1001
TCAD
1000
TCW40_TEXT
1002
{
1000
txt.shx
1070
     0
1070
  1025
1002
}
  0
TEXT
  5
F5
330
1F
100
AcDbEntity
  8
0
  6
Continuous
 62
     7
100
AcDbText
 10
-5613823.5
 20
-6876477.0
 30
0.0
 40
15.0
  1
uc
 41
0.8383233390168515
  7
_TCW_TXTSTY_A
 72
     5
 11
-5613802.500000358
 21
-6876477.0
 31
0.0
100
AcDbText
1001
TCAD
1000
TCW40_TEXT
1002
{
1000
txt.shx
1070
     0
1070
  1025
1002
}
  0
TEXT
  5
5B
330
1F
100
AcDbEntity
  8
0
  6
Continuous
 62
     7
100
AcDbText
 10
-5613407.0
 20
-6876532.5
 30
0.0
 40
15.0
  1
      3
 41
0.2578268887588333
  7
_TCW_TXTSTY_B
 72
     5
 11
-5613357.999999791
 21
-6876532.5
 31
0.0
100
AcDbText
1001
TCAD
1000
TCW40_TEXT
1002
{
1000
txt.shx
1070
     0
1070
  1025
1002
}
  0
TEXT
  5
5C
330
1F
100
AcDbEntity
  8
0
  6
Continuous
 62
     7
100
AcDbText
 10
-5614092.0
 20
-6876508.499999746
 30
0.0
 40
25.000000762939
  1
Mortar M3 (1:5 + methyl cellulose water thickener)
 41
0.6856386413187371
  7
_TCW_TXTSTY_4
 72
     5
 11
-5613314.999986013
 21
-6876508.499999746
 31
0.0
100
AcDbText
1001
TCAD
1000
TCW40_TEXT
1002
{
1000
txt.shx
1070
     0
1070
  1025
1002
}
  0
TEXT
  5
F6
330
1F
100
AcDbEntity
  8
0
  6
Continuous
 62
     7
100
AcDbText
 10
-5614091.0
 20
-6876547.499999746
 30
0.0
 40
25.000000762939
  1
Concrete grout N20 (minimum cement 300 Kg/m , maximum aggregate 10 mm)
 41
0.7388515093136424
  7
_TCW_TXTSTY_C
 72
     5
 11
-5612881.500042343
 21
-6876547.499999746
 31
0.0
100
AcDbText
1001
TCAD
1000
TCW40_TEXT
1002
{
1000
txt.shx
1070
     0
1070
  1025
1002
}
  0
CIRCLE
  5
5F
330
1F
100
AcDbEntity
  8
LAYER2
  6
Continuous
 62
     7
100
AcDbCircle
 10
-5613918.0
 20
-6877217.0
 30
0.0
 40
5.385200000368
1001
ACAD
1000
TCW40_DEV_WIDTH
1002
{
1040
-3.0
1002
}
  0
CIRCLE
  5
60
330
1F
100
AcDbEntity
  8
LAYER2
  6
Continuous
 62
     7
100
AcDbCircle
 10
-5613858.0
 20
-6877217.0
 30
0.0
 40
5.385200000368
1001
ACAD
1000
TCW40_DEV_WIDTH
1002
{
1040
-3.0
1002
}
  0
CIRCLE
  5
61
330
1F
100
AcDbEntity
  8
LAYER2
  6
Continuous
 62
     7
100
AcDbCircle
 10
-5613915.0
 20
-6876961.0
 30
0.0
 40
5.385200000368
1001
ACAD
1000
TCW40_DEV_WIDTH
1002
{
1040
-3.0
1002
}
  0
CIRCLE
  5
62
330
1F
100
AcDbEntity
  8
LAYER2
  6
Continuous
 62
     7
100
AcDbCircle
 10
-5613855.0
 20
-6876961.0
 30
0.0
 40
5.385200000368
1001
ACAD
1000
TCW40_DEV_WIDTH
1002
{
1040
-3.0
1002
}
  0
LWPOLYLINE
  5
63
330
1F
100
AcDbEntity
  8
LAYER3
  6
Continuous
 62
     7
100
AcDbPolyline
 90
        2
 70
     0
 43
2.0
 10
-5613846.5
 20
-6877260.5
 10
-5613928.5
 20
-6877260.5
  0
LWPOLYLINE
  5
64
330
1F
100
AcDbEntity
  8
LAYER3
  6
Continuous
 62
     7
100
AcDbPolyline
 90
        5
 70
     0
 43
2.0
 10
-5613847.5
 20
-6877260.5
 10
-5613836.0
 20
-6877257.5
 10
-5613830.0
 20
-6877251.0
 10
-5613827.5
 20
-6877244.5
 10
-5613827.5
 20
-6877241.5
  0
LWPOLYLINE
  5
65
330
1F
100
AcDbEntity
  8
LAYER3
  6
Continuous
 62
     7
100
AcDbPolyline
 90
        5
 70
     0
 43
2.0
 10
-5613927.5
 20
-6877260.5
 10
-5613939.5
 20
-6877257.5
 10
-5613945.0
 20
-6877251.0
 10
-5613947.0
 20
-6877244.5
 10
-5613947.5
 20
-6877241.5
  0
LWPOLYLINE
  5
66
330
1F
100
AcDbEntity
  8
LAYER3
  6
Continuous
 62
     7
100
AcDbPolyline
 90
        2
 70
     0
 43
2.0
 10
-5613982.5
 20
-6877120.5
 10
-5613947.5
 20
-6877120.5
  0
LWPOLYLINE
  5
67
330
1F
100
AcDbEntity
  8
LAYER3
  6
Continuous
 62
     7
100
AcDbPolyline
 90
        2
 70
     0
 43
2.0
 10
-5613947.5
 20
-6877120.5
 10
-5613947.5
 20
-6877243.5
  0
LWPOLYLINE
  5
68
330
1F
100
AcDbEntity
  8
LAYER3
  6
Continuous
 62
     7
100
AcDbPolyline
 90
        2
 70
     0
 43
2.0
 10
-5613827.5
 20
-6877120.5
 10
-5613827.5
 20
-6877243.5
  0
LWPOLYLINE
  5
69
330
1F
100
AcDbEntity
  8
LAYER3
  6
Continuous
 62
     7
100
AcDbPolyline
 90
        2
 70
     0
 43
2.0
 10
-5613827.5
 20
-6877120.5
 10
-5613792.5
 20
-6877120.5
  0
LWPOLYLINE
  5
6A
330
1F
100
AcDbEntity
  8
LAYER3
  6
Continuous
 62
     7
100
AcDbPolyline
 90
        2
 70
     0
 43
2.0
 10
-5613827.5
 20
-6877110.5
 10
-5613792.5
 20
-6877110.5
  0
LWPOLYLINE
  5
F7
330
1F
100
AcDbEntity
  8
LAYER3
  6
Continuous
 62
     7
100
AcDbPolyline
 90
        2
 70
     0
 43
2.0
 10
-5613982.5
 20
-6877110.5
 10
-5613827.5
 20
-6877110.5
  0
LWPOLYLINE
  5
F8
330
1F
100
AcDbEntity
  8
LAYER3
  6
Continuous
 62
     7
100
AcDbPolyline
 90
        2
 70
     0
 43
2.0
 10
-5613952.5
 20
-6877110.5
 10
-5613947.5
 20
-6876920.5
  0
LWPOLYLINE
  5
6D
330
1F
100
AcDbEntity
  8
LAYER3
  6
Continuous
 62
     7
100
AcDbPolyline
 90
        2
 70
     0
 43
2.0
 10
-5613822.5
 20
-6877110.5
 10
-5613827.5
 20
-6876920.5
  0
LWPOLYLINE
  5
6E
330
1F
100
AcDbEntity
  8
LAYER3
  6
Continuous
 62
     7
100
AcDbPolyline
 90
       37
 70
     0
 43
2.0
 10
-5613947.5
 20
-6877120.5
 10
-5613947.0
 20
-6877120.0
 10
-5613947.0
 20
-6877120.0
 10
-5613947.0
 20
-6877120.5
 10
-5613946.5
 20
-6877120.0
 10
-5613946.0
 20
-6877119.5
 10
-5613946.0
 20
-6877119.5
 10
-5613945.5
 20
-6877119.5
 10
-5613945.5
 20
-6877119.5
 10
-5613945.0
 20
-6877119.0
 10
-5613945.0
 20
-6877119.0
 10
-5613944.5
 20
-6877118.5
 10
-5613944.5
 20
-6877118.5
 10
-5613944.0
 20
-6877118.0
 10
-5613944.0
 20
-6877117.5
 10
-5613944.0
 20
-6877117.0
 10
-5613944.0
 20
-6877116.0
 10
-5613943.5
 20
-6877115.5
 10
-5613944.0
 20
-6877115.0
 10
-5613944.0
 20
-6877114.0
 10
-5613944.0
 20
-6877113.5
 10
-5613944.5
 20
-6877113.0
 10
-5613944.5
 20
-6877112.5
 10
-5613945.0
 20
-6877112.0
 10
-5613945.5
 20
-6877111.5
 10
-5613945.5
 20
-6877111.5
 10
-5613946.0
 20
-6877111.0
 10
-5613946.0
 20
-6877111.0
 10
-5613946.5
 20
-6877111.0
 10
-5613946.5
 20
-6877111.0
 10
-5613947.0
 20
-6877111.0
 10
-5613947.0
 20
-6877111.0
 10
-5613947.5
 20
-6877110.5
 10
-5613947.5
 20
-6877110.5
 10
-5613948.0
 20
-6877110.5
 10
-5613948.0
 20
-6877110.5
 10
-5613948.5
 20
-6877110.5
  0
LWPOLYLINE
  5
6F
330
1F
100
AcDbEntity
  8
LAYER3
  6
Continuous
 62
     7
100
AcDbPolyline
 90
       37
 70
     0
 43
2.0
 10
-5613828.0
 20
-6877120.5
 10
-5613828.0
 20
-6877120.0
 10
-5613828.5
 20
-6877120.0
 10
-5613829.0
 20
-6877120.5
 10
-5613829.0
 20
-6877120.0
 10
-5613829.0
 20
-6877119.5
 10
-5613829.5
 20
-6877119.5
 10
-5613830.0
 20
-6877119.5
 10
-5613830.0
 20
-6877119.5
 10
-5613830.5
 20
-6877119.0
 10
-5613830.5
 20
-6877119.0
 10
-5613831.0
 20
-6877118.5
 10
-5613831.0
 20
-6877118.5
 10
-5613831.5
 20
-6877118.0
 10
-5613831.5
 20
-6877117.5
 10
-5613831.5
 20
-6877117.0
 10
-5613831.5
 20
-6877116.0
 10
-5613832.0
 20
-6877115.5
 10
-5613831.5
 20
-6877115.0
 10
-5613831.5
 20
-6877114.0
 10
-5613831.5
 20
-6877113.5
 10
-5613831.0
 20
-6877113.0
 10
-5613831.0
 20
-6877112.5
 10
-5613830.5
 20
-6877112.0
 10
-5613830.0
 20
-6877111.5
 10
-5613830.0
 20
-6877111.5
 10
-5613829.5
 20
-6877111.0
 10
-5613829.5
 20
-6877111.0
 10
-5613829.0
 20
-6877111.0
 10
-5613829.0
 20
-6877111.0
 10
-5613828.5
 20
-6877111.0
 10
-5613828.5
 20
-6877111.0
 10
-5613828.0
 20
-6877110.5
 10
-5613828.0
 20
-6877110.5
 10
-5613827.5
 20
-6877110.5
 10
-5613827.5
 20
-6877110.5
 10
-5613827.0
 20
-6877110.5
  0
LWPOLYLINE
  5
70
330
1F
100
AcDbEntity
  8
LAYER3
  6
Continuous
 62
     7
100
AcDbPolyline
 90
        2
 70
     0
 43
2.0
 10
-5613982.5
 20
-6876920.5
 10
-5613947.5
 20
-6876920.5
  0
LWPOLYLINE
  5
71
330
1F
100
AcDbEntity
  8
LAYER3
  6
Continuous
 62
     7
100
AcDbPolyline
 90
        2
 70
     0
 43
2.0
 10
-5613827.5
 20
-6876920.5
 10
-5613792.5
 20
-6876920.5
  0
LWPOLYLINE
  5
72
330
1F
100
AcDbEntity
  8
LAYER3
  6
Continuous
 62
     7
100
AcDbPolyline
 90
        2
 70
     0
 43
2.0
 10
-5613827.5
 20
-6876910.5
 10
-5613792.5
 20
-6876910.5
  0
LWPOLYLINE
  5
F9
330
1F
100
AcDbEntity
  8
LAYER3
  6
Continuous
 62
     7
100
AcDbPolyline
 90
        2
 70
     0
 43
2.0
 10
-5613982.5
 20
-6876910.5
 10
-5613827.5
 20
-6876910.5
  0
LWPOLYLINE
  5
FA
330
1F
100
AcDbEntity
  8
LAYER3
  6
Continuous
 62
     7
100
AcDbPolyline
 90
       37
 70
     0
 43
2.0
 10
-5613947.5
 20
-6876920.5
 10
-5613947.0
 20
-6876920.0
 10
-5613947.0
 20
-6876920.0
 10
-5613947.0
 20
-6876920.5
 10
-5613946.5
 20
-6876920.0
 10
-5613946.0
 20
-6876919.5
 10
-5613946.0
 20
-6876919.5
 10
-5613945.5
 20
-6876919.5
 10
-5613945.5
 20
-6876919.5
 10
-5613945.0
 20
-6876919.0
 10
-5613945.0
 20
-6876919.0
 10
-5613944.5
 20
-6876918.5
 10
-5613944.5
 20
-6876918.5
 10
-5613944.0
 20
-6876918.0
 10
-5613944.0
 20
-6876917.5
 10
-5613944.0
 20
-6876917.0
 10
-5613944.0
 20
-6876916.0
 10
-5613943.5
 20
-6876915.5
 10
-5613944.0
 20
-6876915.0
 10
-5613944.0
 20
-6876914.0
 10
-5613944.0
 20
-6876913.5
 10
-5613944.5
 20
-6876913.0
 10
-5613944.5
 20
-6876912.5
 10
-5613945.0
 20
-6876912.0
 10
-5613945.5
 20
-6876911.5
 10
-5613945.5
 20
-6876911.5
 10
-5613946.0
 20
-6876911.0
 10
-5613946.0
 20
-6876911.0
 10
-5613946.5
 20
-6876911.0
 10
-5613946.5
 20
-6876911.0
 10
-5613947.0
 20
-6876911.0
 10
-5613947.0
 20
-6876911.0
 10
-5613947.5
 20
-6876910.5
 10
-5613947.5
 20
-6876910.5
 10
-5613948.0
 20
-6876910.5
 10
-5613948.0
 20
-6876910.5
 10
-5613948.5
 20
-6876910.5
  0
LWPOLYLINE
  5
FB
330
1F
100
AcDbEntity
  8
LAYER3
  6
Continuous
 62
     7
100
AcDbPolyline
 90
       37
 70
     0
 43
2.0
 10
-5613828.0
 20
-6876920.5
 10
-5613828.0
 20
-6876920.0
 10
-5613828.5
 20
-6876920.0
 10
-5613829.0
 20
-6876920.5
 10
-5613829.0
 20
-6876920.0
 10
-5613829.0
 20
-6876919.5
 10
-5613829.5
 20
-6876919.5
 10
-5613830.0
 20
-6876919.5
 10
-5613830.0
 20
-6876919.5
 10
-5613830.5
 20
-6876919.0
 10
-5613830.5
 20
-6876919.0
 10
-5613831.0
 20
-6876918.5
 10
-5613831.0
 20
-6876918.5
 10
-5613831.5
 20
-6876918.0
 10
-5613831.5
 20
-6876917.5
 10
-5613831.5
 20
-6876917.0
 10
-5613831.5
 20
-6876916.0
 10
-5613832.0
 20
-6876915.5
 10
-5613831.5
 20
-6876915.0
 10
-5613831.5
 20
-6876914.0
 10
-5613831.5
 20
-6876913.5
 10
-5613831.0
 20
-6876913.0
 10
-5613831.0
 20
-6876912.5
 10
-5613830.5
 20
-6876912.0
 10
-5613830.0
 20
-6876911.5
 10
-5613830.0
 20
-6876911.5
 10
-5613829.5
 20
-6876911.0
 10
-5613829.5
 20
-6876911.0
 10
-5613829.0
 20
-6876911.0
 10
-5613829.0
 20
-6876911.0
 10
-5613828.5
 20
-6876911.0
 10
-5613828.5
 20
-6876911.0
 10
-5613828.0
 20
-6876910.5
 10
-5613828.0
 20
-6876910.5
 10
-5613827.5
 20
-6876910.5
 10
-5613827.5
 20
-6876910.5
 10
-5613827.0
 20
-6876910.5
  0
LWPOLYLINE
  5
FC
330
1F
100
AcDbEntity
  8
LAYER3
  6
Continuous
 62
     7
100
AcDbPolyline
 90
        2
 70
     0
 43
2.0
 10
-5613952.5
 20
-6876910.5
 10
-5613950.5
 20
-6876829.5
  0
LWPOLYLINE
  5
77
330
1F
100
AcDbEntity
  8
LAYER3
  6
Continuous
 62
     7
100
AcDbPolyline
 90
        2
 70
     0
 43
2.0
 10
-5613822.5
 20
-6876910.5
 10
-5613824.5
 20
-6876829.5
  0
LWPOLYLINE
  5
78
330
1F
100
AcDbEntity
  8
LAYER3
  6
Continuous
 62
     7
100
AcDbPolyline
 90
        2
 70
     0
 43
2.0
 10
-5613827.5
 20
-6877310.5
 10
-5613792.5
 20
-6877310.5
  0
LWPOLYLINE
  5
79
330
1F
100
AcDbEntity
  8
LAYER3
  6
Continuous
 62
     7
100
AcDbPolyline
 90
        2
 70
     0
 43
2.0
 10
-5613982.5
 20
-6877310.5
 10
-5613982.5
 20
-6876829.5
  0
LWPOLYLINE
  5
7A
330
1F
100
AcDbEntity
  8
LAYER3
  6
Continuous
 62
     7
100
AcDbPolyline
 90
        2
 70
     0
 43
2.0
 10
-5613982.5
 20
-6877310.5
 10
-5613792.5
 20
-6877310.5
  0
LWPOLYLINE
  5
7B
330
1F
100
AcDbEntity
  8
LAYER3
  6
Continuous
 62
     7
100
AcDbPolyline
 90
        2
 70
     0
 43
2.0
 10
-5613792.5
 20
-6877310.5
 10
-5613792.5
 20
-6876829.5
  0
LWPOLYLINE
  5
7C
330
1F
100
AcDbEntity
  8
LAYER3
  6
Continuous
 62
     7
100
AcDbPolyline
 90
        2
 70
     0
 43
2.0
 10
-5613950.0
 20
-6876971.5
 10
-5613827.0
 20
-6876971.5
  0
LINE
  5
7D
330
1F
100
AcDbEntity
  8
LAYER4
  6
Continuous
 62
     7
100
AcDbLine
 10
-5614024.0
 20
-6877220.5
 30
0.0
 11
-5614092.5
 21
-6877220.5
 31
0.0
1001
ACAD
1000
TCW40_DEV_WIDTH
1002
{
1040
-3.0
1002
}
  0
LINE
  5
7E
330
1F
100
AcDbEntity
  8
LAYER4
  6
Continuous
 62
     7
100
AcDbLine
 10
-5614024.0
 20
-6876920.5
 30
0.0
 11
-5614092.5
 21
-6876920.5
 31
0.0
1001
ACAD
1000
TCW40_DEV_WIDTH
1002
{
1040
-3.0
1002
}
  0
LINE
  5
7F
330
1F
100
AcDbEntity
  8
LAYER4
  6
Continuous
 62
     7
100
AcDbLine
 10
-5614080.0
 20
-6877070.5
 30
0.0
 11
-5614080.0
 21
-6877220.5
 31
0.0
1001
ACAD
1000
TCW40_DEV_WIDTH
1002
{
1040
-3.0
1002
}
  0
LINE
  5
80
330
1F
100
AcDbEntity
  8
LAYER4
  6
Continuous
 62
     7
100
AcDbLine
 10
-5614067.5
 20
-6877233.0
 30
0.0
 11
-5614092.5
 21
-6877208.0
 31
0.0
1001
ACAD
1000
TCW40_DEV_WIDTH
1002
{
1040
-3.0
1002
}
  0
LINE
  5
81
330
1F
100
AcDbEntity
  8
LAYER4
  6
Continuous
 62
     7
100
AcDbLine
 10
-5614080.0
 20
-6877070.5
 30
0.0
 11
-5614080.0
 21
-6876920.5
 31
0.0
1001
ACAD
1000
TCW40_DEV_WIDTH
1002
{
1040
-3.0
1002
}
  0
LINE
  5
82
330
1F
100
AcDbEntity
  8
LAYER4
  6
Continuous
 62
     7
100
AcDbLine
 10
-5614092.5
 20
-6876908.0
 30
0.0
 11
-5614067.5
 21
-6876933.0
 31
0.0
1001
ACAD
1000
TCW40_DEV_WIDTH
1002
{
1040
-3.0
1002
}
  0
LINE
  5
83
330
1F
100
AcDbEntity
  8
LAYER4
  6
Continuous
 62
     7
100
AcDbLine
 10
-5613792.5
 20
-6877354.5
 30
0.0
 11
-5613792.5
 21
-6877454.5
 31
0.0
1001
ACAD
1000
TCW40_DEV_WIDTH
1002
{
1040
-3.0
1002
}
  0
LINE
  5
84
330
1F
100
AcDbEntity
  8
LAYER4
  6
Continuous
 62
     7
100
AcDbLine
 10
-5613930.5
 20
-6877454.5
 30
0.0
 11
-5613904.5
 21
-6877428.5
 31
0.0
1001
ACAD
1000
TCW40_DEV_WIDTH
1002
{
1040
-3.0
1002
}
  0
LINE
  5
85
330
1F
100
AcDbEntity
  8
LAYER4
  6
Continuous
 62
     7
100
AcDbLine
 10
-5613805.5
 20
-6877454.5
 30
0.0
 11
-5613779.5
 21
-6877428.5
 31
0.0
1001
ACAD
1000
TCW40_DEV_WIDTH
1002
{
1040
-3.0
1002
}
  0
LINE
  5
86
330
1F
100
AcDbEntity
  8
LAYER4
  6
Continuous
 62
     7
100
AcDbLine
 10
-5613917.5
 20
-6877354.5
 30
0.0
 11
-5613917.5
 21
-6877454.5
 31
0.0
1001
ACAD
1000
TCW40_DEV_WIDTH
1002
{
1040
-3.0
1002
}
  0
LINE
  5
87
330
1F
100
AcDbEntity
  8
LAYER4
  6
Continuous
 62
     7
100
AcDbLine
 10
-5613917.5
 20
-6877441.5
 30
0.0
 11
-5613792.5
 21
-6877441.5
 31
0.0
1001
ACAD
1000
TCW40_DEV_WIDTH
1002
{
1040
-3.0
1002
}
  0
TEXT
  5
89
330
1F
100
AcDbEntity
  8
LAYER4
  6
Continuous
 62
     7
100
AcDbText
 10
-5613864.5
 20
-6877431.5
 30
0.0
 40
25.000000762939
  1
125
 41
0.8888888562856748
  7
_TCW_TXTSTY_D
 72
     5
 11
-5613812.50000032
 21
-6877431.5
 31
0.0
100
AcDbText
1001
TCAD
1000
TCW40_TEXT
1002
{
1000
txt.shx
1070
     0
1070
  1025
1002
}
  0
LINE
  5
8A
330
1F
100
AcDbEntity
  8
LAYER4
  6
Continuous
 62
     7
100
AcDbLine
 10
-5613982.5
 20
-6877355.0
 30
0.0
 11
-5613982.5
 21
-6877523.5
 31
0.0
1001
ACAD
1000
TCW40_DEV_WIDTH
1002
{
1040
-3.0
1002
}
  0
LINE
  5
8B
330
1F
100
AcDbEntity
  8
LAYER4
  6
Continuous
 62
     7
100
AcDbLine
 10
-5613792.5
 20
-6877355.0
 30
0.0
 11
-5613792.5
 21
-6877523.5
 31
0.0
1001
ACAD
1000
TCW40_DEV_WIDTH
1002
{
1040
-3.0
1002
}
  0
LINE
  5
8C
330
1F
100
AcDbEntity
  8
LAYER4
  6
Continuous
 62
     7
100
AcDbLine
 10
-5613887.5
 20
-6877511.0
 30
0.0
 11
-5613982.5
 21
-6877511.0
 31
0.0
1001
ACAD
1000
TCW40_DEV_WIDTH
1002
{
1040
-3.0
1002
}
  0
LINE
  5
8D
330
1F
100
AcDbEntity
  8
LAYER4
  6
Continuous
 62
     7
100
AcDbLine
 10
-5613995.0
 20
-6877523.5
 30
0.0
 11
-5613970.0
 21
-6877498.5
 31
0.0
1001
ACAD
1000
TCW40_DEV_WIDTH
1002
{
1040
-3.0
1002
}
  0
LINE
  5
8E
330
1F
100
AcDbEntity
  8
LAYER4
  6
Continuous
 62
     7
100
AcDbLine
 10
-5613887.5
 20
-6877511.0
 30
0.0
 11
-5613792.5
 21
-6877511.0
 31
0.0
1001
ACAD
1000
TCW40_DEV_WIDTH
1002
{
1040
-3.0
1002
}
  0
LINE
  5
8F
330
1F
100
AcDbEntity
  8
LAYER4
  6
Continuous
 62
     7
100
AcDbLine
 10
-5613780.0
 20
-6877498.5
 30
0.0
 11
-5613805.0
 21
-6877523.5
 31
0.0
1001
ACAD
1000
TCW40_DEV_WIDTH
1002
{
1040
-3.0
1002
}
  0
TEXT
  5
91
330
1F
100
AcDbEntity
  8
LAYER4
  6
Continuous
 62
     7
100
AcDbText
 10
-5613916.5
 20
-6877498.499999746
 30
0.0
 40
25.000000762939
  1
190
 41
1.069124360555212
  7
_TCW_TXTSTY_E
 72
     5
 11
-5613858.50000167
 21
-6877498.499999746
 31
0.0
100
AcDbText
1001
TCAD
1000
TCW40_TEXT
1002
{
1000
txt.shx
1070
     0
1070
  1025
1002
}
  0
TEXT
  5
95
330
1F
100
AcDbEntity
  8
LAYER6
  6
Continuous
 62
     7
100
AcDbText
 10
-5613523.748881448
 20
-6877724.262565485
 30
0.0
 40
25.000000762939
  1
Scale 1:10
 41
0.8578878387093244
  7
_TCW_TXTSTY_10
 72
     5
 11
-5613359.248883355
 21
-6877724.262565485
 31
0.0
100
AcDbText
1001
TCAD
1000
TCW40_TEXT
1002
{
1000
txt.shx
1070
     0
1070
  1025
1002
}
  0
TEXT
  5
FD
330
1F
100
AcDbEntity
  8
LAYER4
  6
Continuous
 62
     7
100
AcDbText
 10
-5614093.128665866
 20
-6877117.683149758
 30
0.0
 40
25.000000762939
  1
300
 50
91.7585201495483
 41
0.9957081295963572
  7
_TCW_TXTSTY_11
 72
     5
 11
-5614094.90852047
 21
-6877059.710465202
 31
0.0
100
AcDbText
1001
TCAD
1000
TCW40_TEXT
1002
{
1000
txt.shx
1070
     0
1070
  1025
1002
}
  0
TEXT
  5
C0
330
1F
100
AcDbEntity
  8
0
  6
Continuous
 62
     7
370
    30
100
AcDbText
 10
-5614039.007910716
 20
-6877669.649627842
 30
0.0
 40
29.99999998790693
  1
Reinforced Concrete Masonry Lintel Manafactured By Island Block & Paving
 50
0.1153913904484886
 41
0.6523051358855803
 72
     5
 11
-5612711.634882177
 21
-6877666.976348452
 31
0.0
100
AcDbText
1001
TCAD
1000
TCW40_TEXT
1002
{
1000
txt.shx
1070
     0
1070
  1025
1002
}
  0
ENDSEC
  0
SECTION
  2
OBJECTS
  0
DICTIONARY
  5
C
330
0
100
AcDbDictionary
281
     1
  3
ACAD_COLOR
350
6C
  3
ACAD_GROUP
350
D
  3
ACAD_LAYOUT
350
1A
  3
ACAD_MATERIAL
350
6B
  3
ACAD_MLEADERSTYLE
350
FF
  3
ACAD_MLINESTYLE
350
17
  3
ACAD_PLOTSETTINGS
350
19
  3
ACAD_PLOTSTYLENAME
350
E
  3
ACAD_SCALELIST
350
99
  3
ACAD_TABLESTYLE
350
92
  3
AcDbVariableDictionary
350
59
  0
DICTIONARY
  5
FE
330
1F
100
AcDbDictionary
280
     1
281
     1
  0
DICTIONARY
  5
6C
102
{ACAD_REACTORS
330
C
102
}
330
C
100
AcDbDictionary
281
     1
  0
DICTIONARY
  5
D
102
{ACAD_REACTORS
330
C
102
}
330
C
100
AcDbDictionary
281
     1
  0
DICTIONARY
  5
1A
102
{ACAD_REACTORS
330
C
102
}
330
C
100
AcDbDictionary
281
     1
  3
_Paper_Space
350
F4
  3
Model
350
22
  0
DICTIONARY
  5
6B
102
{ACAD_REACTORS
330
C
102
}
330
C
100
AcDbDictionary
281
     1
  0
DICTIONARY
  5
FF
102
{ACAD_REACTORS
330
C
102
}
330
C
100
AcDbDictionary
281
     1
  0
DICTIONARY
  5
17
102
{ACAD_REACTORS
330
C
102
}
330
C
100
AcDbDictionary
281
     1
  3
Standard
350
18
  0
DICTIONARY
  5
19
102
{ACAD_REACTORS
330
C
102
}
330
C
100
AcDbDictionary
281
     1
  0
ACDBDICTIONARYWDFLT
  5
E
102
{ACAD_REACTORS
330
C
102
}
330
C
100
AcDbDictionary
281
     1
  3
Normal
350
F
100
AcDbDictionaryWithDefault
340
F
  0
DICTIONARY
  5
99
102
{ACAD_REACTORS
330
C
102
}
330
C
100
AcDbDictionary
281
     1
  3
A0
350
D4
  3
A1
350
D5
  3
A2
350
D6
  3
A3
350
D7
  3
A4
350
D8
  3
A5
350
D9
  3
A6
350
DA
  3
A7
350
DB
  3
A8
350
DC
  3
A9
350
DD
  3
B0
350
DE
  3
B1
350
DF
  3
B2
350
E0
  3
B3
350
E1
  3
B4
350
E2
  3
B5
350
E3
  3
B6
350
E4
  3
B7
350
E5
  3
B8
350
E6
  3
B9
350
E7
  3
C0
350
E8
  3
C1
350
E9
  3
C2
350
EA
  3
C3
350
EB
  3
C4
350
EC
  3
C5
350
ED
  3
C6
350
EE
  3
C7
350
EF
  3
C8
350
F0
  3
C9
350
F1
  3
D0
350
F2
  3
D1
350
F3
  3
D2
350
BB
  0
DICTIONARY
  5
92
102
{ACAD_REACTORS
330
C
102
}
330
C
100
AcDbDictionary
281
     1
  3
Standard
350
93
  0
DICTIONARY
  5
59
102
{ACAD_REACTORS
330
C
102
}
330
C
100
AcDbDictionary
281
     1
  3
CANNOSCALE
350
100
  3
CTABLESTYLE
350
98
  3
DIMASSOC
350
BD
  3
HIDETEXT
350
5E
  0
LAYOUT
  5
F4
102
{ACAD_REACTORS
330
1A
102
}
330
1A
100
AcDbPlotSettings
  1

  2
none_device
  4
Sun_Hi-Res_(1280.00_x_1600.00_Pixels)
  6

 40
0.0
 41
0.0
 42
0.0
 43
0.0
 44
1280.0
 45
1600.0
 46
0.0
 47
0.0
 48
0.0
 49
0.0
140
0.0
141
0.0
142
1.0
143
1.0
 70
   544
 72
     2
 73
     0
 74
     0
  7

 75
    16
 76
     0
 77
     2
 78
   300
147
1.0
148
0.0
149
0.0
100
AcDbLayout
  1
_Paper_Space
 70
     0
 71
     1
 10
0.0
 20
0.0
 11
304.8
 21
228.6
 12
0.0
 22
0.0
 32
0.0
 14
0.0
 24
0.0
 34
0.0
 15
0.0
 25
0.0
 35
0.0
146
0.0
 13
0.0
 23
0.0
 33
0.0
 16
1.0
 26
0.0
 36
0.0
 17
0.0
 27
1.0
 37
0.0
 76
     0
330
73
  0
LAYOUT
  5
22
102
{ACAD_REACTORS
330
1A
102
}
330
1A
100
AcDbPlotSettings
  1

  2
none_device
  4
ISO_C5_(229.00_x_162.00_MM)
  6

 40
0.0
 41
0.0
 42
0.0
 43
0.0
 44
229.0
 45
162.0
 46
0.0
 47
0.0
 48
0.0
 49
0.0
140
0.0
141
0.0
142
1.0
143
1.0
 70
 11808
 72
     1
 73
     0
 74
     0
  7

 75
     0
 76
     0
 77
     2
 78
   300
147
0.0805791640429741
148
0.0
149
0.0
100
AcDbLayout
  1
Model
 70
     1
 71
     0
 10
-5613420.750017405
 20
-6877280.75
 11
-5611963.250052216
 21
-6875605.583333334
 12
0.0
 22
0.0
 32
0.0
 14
-5614119.766886561
 24
-6877815.499999746
 34
0.0
 15
-5612637.000034811
 25
-6876408.999998983
 35
0.0
146
0.0
 13
0.0
 23
0.0
 33
0.0
 16
1.0
 26
0.0
 36
0.0
 17
0.0
 27
1.0
 37
0.0
 76
     0
330
1F
331
97
  0
MLINESTYLE
  5
18
102
{ACAD_REACTORS
330
17
102
}
330
17
100
AcDbMlineStyle
  2
Standard
 70
     0
  3

 62
   256
 51
90.0
 52
90.0
 71
     2
 49
0.5
 62
   256
  6
BYLAYER
 49
-0.5
 62
   256
  6
BYLAYER
  0
ACDBPLACEHOLDER
  5
F
102
{ACAD_REACTORS
330
E
102
}
330
E
  0
SCALE
  5
D4
102
{ACAD_REACTORS
330
99
102
}
330
99
100
AcDbScale
 70
     0
300
1:1
140
1.0
141
1.0
290
     1
  0
SCALE
  5
D5
102
{ACAD_REACTORS
330
99
102
}
330
99
100
AcDbScale
 70
     0
300
1:2
140
1.0
141
2.0
290
     0
  0
SCALE
  5
D6
102
{ACAD_REACTORS
330
99
102
}
330
99
100
AcDbScale
 70
     0
300
1:4
140
1.0
141
4.0
290
     0
  0
SCALE
  5
D7
102
{ACAD_REACTORS
330
99
102
}
330
99
100
AcDbScale
 70
     0
300
1:5
140
1.0
141
5.0
290
     0
  0
SCALE
  5
D8
102
{ACAD_REACTORS
330
99
102
}
330
99
100
AcDbScale
 70
     0
300
1:8
140
1.0
141
8.0
290
     0
  0
SCALE
  5
D9
102
{ACAD_REACTORS
330
99
102
}
330
99
100
AcDbScale
 70
     0
300
1:10
140
1.0
141
10.0
290
     0
  0
SCALE
  5
DA
102
{ACAD_REACTORS
330
99
102
}
330
99
100
AcDbScale
 70
     0
300
1:16
140
1.0
141
16.0
290
     0
  0
SCALE
  5
DB
102
{ACAD_REACTORS
330
99
102
}
330
99
100
AcDbScale
 70
     0
300
1:20
140
1.0
141
20.0
290
     0
  0
SCALE
  5
DC
102
{ACAD_REACTORS
330
99
102
}
330
99
100
AcDbScale
 70
     0
300
1:30
140
1.0
141
30.0
290
     0
  0
SCALE
  5
DD
102
{ACAD_REACTORS
330
99
102
}
330
99
100
AcDbScale
 70
     0
300
1:40
140
1.0
141
40.0
290
     0
  0
SCALE
  5
DE
102
{ACAD_REACTORS
330
99
102
}
330
99
100
AcDbScale
 70
     0
300
1:50
140
1.0
141
50.0
290
     0
  0
SCALE
  5
DF
102
{ACAD_REACTORS
330
99
102
}
330
99
100
AcDbScale
 70
     0
300
1:100
140
1.0
141
100.0
290
     0
  0
SCALE
  5
E0
102
{ACAD_REACTORS
330
99
102
}
330
99
100
AcDbScale
 70
     0
300
2:1
140
2.0
141
1.0
290
     0
  0
SCALE
  5
E1
102
{ACAD_REACTORS
330
99
102
}
330
99
100
AcDbScale
 70
     0
300
4:1
140
4.0
141
1.0
290
     0
  0
SCALE
  5
E2
102
{ACAD_REACTORS
330
99
102
}
330
99
100
AcDbScale
 70
     0
300
8:1
140
8.0
141
1.0
290
     0
  0
SCALE
  5
E3
102
{ACAD_REACTORS
330
99
102
}
330
99
100
AcDbScale
 70
     0
300
10:1
140
10.0
141
1.0
290
     0
  0
SCALE
  5
E4
102
{ACAD_REACTORS
330
99
102
}
330
99
100
AcDbScale
 70
     0
300
100:1
140
100.0
141
1.0
290
     0
  0
SCALE
  5
E5
102
{ACAD_REACTORS
330
99
102
}
330
99
100
AcDbScale
 70
     0
300
1/128" = 1'-0"
140
0.0078125
141
12.0
290
     0
  0
SCALE
  5
E6
102
{ACAD_REACTORS
330
99
102
}
330
99
100
AcDbScale
 70
     0
300
1/64" = 1'-0"
140
0.015625
141
12.0
290
     0
  0
SCALE
  5
E7
102
{ACAD_REACTORS
330
99
102
}
330
99
100
AcDbScale
 70
     0
300
1/32" = 1'-0"
140
0.03125
141
12.0
290
     0
  0
SCALE
  5
E8
102
{ACAD_REACTORS
330
99
102
}
330
99
100
AcDbScale
 70
     0
300
1/16" = 1'-0"
140
0.0625
141
12.0
290
     0
  0
SCALE
  5
E9
102
{ACAD_REACTORS
330
99
102
}
330
99
100
AcDbScale
 70
     0
300
3/32" = 1'-0"
140
0.09375
141
12.0
290
     0
  0
SCALE
  5
EA
102
{ACAD_REACTORS
330
99
102
}
330
99
100
AcDbScale
 70
     0
300
1/8" = 1'-0"
140
0.125
141
12.0
290
     0
  0
SCALE
  5
EB
102
{ACAD_REACTORS
330
99
102
}
330
99
100
AcDbScale
 70
     0
300
3/16" = 1'-0"
140
0.1875
141
12.0
290
     0
  0
SCALE
  5
EC
102
{ACAD_REACTORS
330
99
102
}
330
99
100
AcDbScale
 70
     0
300
1/4" = 1'-0"
140
0.25
141
12.0
290
     0
  0
SCALE
  5
ED
102
{ACAD_REACTORS
330
99
102
}
330
99
100
AcDbScale
 70
     0
300
3/8" = 1'-0"
140
0.375
141
12.0
290
     0
  0
SCALE
  5
EE
102
{ACAD_REACTORS
330
99
102
}
330
99
100
AcDbScale
 70
     0
300
1/2" = 1'-0"
140
0.5
141
12.0
290
     0
  0
SCALE
  5
EF
102
{ACAD_REACTORS
330
99
102
}
330
99
100
AcDbScale
 70
     0
300
3/4" = 1'-0"
140
0.75
141
12.0
290
     0
  0
SCALE
  5
F0
102
{ACAD_REACTORS
330
99
102
}
330
99
100
AcDbScale
 70
     0
300
1" = 1'-0"
140
1.0
141
12.0
290
     0
  0
SCALE
  5
F1
102
{ACAD_REACTORS
330
99
102
}
330
99
100
AcDbScale
 70
     0
300
1-1/2" = 1'-0"
140
1.5
141
12.0
290
     0
  0
SCALE
  5
F2
102
{ACAD_REACTORS
330
99
102
}
330
99
100
AcDbScale
 70
     0
300
3" = 1'-0"
140
3.0
141
12.0
290
     0
  0
SCALE
  5
F3
102
{ACAD_REACTORS
330
99
102
}
330
99
100
AcDbScale
 70
     0
300
6" = 1'-0"
140
6.0
141
12.0
290
     0
  0
SCALE
  5
BB
102
{ACAD_REACTORS
330
99
102
}
330
99
100
AcDbScale
 70
     0
300
1'-0" = 1'-0"
140
12.0
141
12.0
290
     0
  0
TABLESTYLE
  5
93
102
{ACAD_REACTORS
330
92
102
}
330
92
100
AcDbTableStyle
  3
Standard
 70
     0
 71
     0
 40
0.06
 41
0.06
280
     0
281
     0
  7
Standard
140
0.18
170
     2
 62
     0
 63
     7
283
     0
 90
      512
 91
        0
  1

274
    -2
284
     1
 64
     0
275
    -2
285
     1
 65
     0
276
    -2
286
     1
 66
     0
277
    -2
287
     1
 67
     0
278
    -2
288
     1
 68
     0
279
    -2
289
     1
 69
     0
  7
Standard
140
0.25
170
     5
 62
     0
 63
     7
283
     0
 90
      512
 91
        0
  1

274
    -2
284
     1
 64
     0
275
    -2
285
     1
 65
     0
276
    -2
286
     1
 66
     0
277
    -2
287
     1
 67
     0
278
    -2
288
     1
 68
     0
279
    -2
289
     1
 69
     0
  7
Standard
140
0.18
170
     5
 62
     0
 63
     7
283
     0
 90
      512
 91
        0
  1

274
    -2
284
     1
 64
     0
275
    -2
285
     1
 65
     0
276
    -2
286
     1
 66
     0
277
    -2
287
     1
 67
     0
278
    -2
288
     1
 68
     0
279
    -2
289
     1
 69
     0
  0
DICTIONARYVAR
  5
100
102
{ACAD_REACTORS
330
59
102
}
330
59
100
DictionaryVariables
280
     0
  1
1:1
  0
DICTIONARYVAR
  5
98
102
{ACAD_REACTORS
330
59
102
}
330
59
100
DictionaryVariables
280
     0
  1
Standard
  0
DICTIONARYVAR
  5
BD
102
{ACAD_REACTORS
330
59
102
}
330
59
100
DictionaryVariables
280
     0
  1
2
  0
DICTIONARYVAR
  5
5E
102
{ACAD_REACTORS
330
59
102
}
330
59
100
DictionaryVariables
280
     0
  1
1
  0
ENDSEC
  0
EOF
