  0
SECTION
  2
HEADER
  9
$ACADVER
  1
AC1021
  9
$ACADMAINTVER
 70
    25
  9
$DWGCODEPAGE
  3
ANSI_1252
  9
$LASTSAVEDBY
  1
jbassett
  9
$INSBASE
 10
0.0
 20
0.0
 30
0.0
  9
$EXTMIN
 10
377180.0
 20
-5599.1992
 30
0.0
  9
$EXTMAX
 10
379438.1515941878
 20
-3573.5351
 30
0.0
  9
$LIMMIN
 10
377180.0
 20
-5595.9492
  9
$LIMMAX
 10
379153.0313
 20
-3568.5352
  9
$ORTHOMODE
 70
     0
  9
$REGENMODE
 70
     1
  9
$FILLMODE
 70
     1
  9
$QTEXTMODE
 70
     0
  9
$MIRRTEXT
 70
     1
  9
$LTSCALE
 40
1.0
  9
$ATTMODE
 70
     1
  9
$TEXTSIZE
 40
0.2
  9
$TRACEWID
 40
0.05
  9
$TEXTSTYLE
  7
Standard
  9
$CLAYER
  8
0
  9
$CELTYPE
  6
ByLayer
  9
$CECOLOR
 62
   256
  9
$CELTSCALE
 40
1.0
  9
$DISPSILH
 70
     0
  9
$DIMSCALE
 40
1.0
  9
$DIMASZ
 40
0.18
  9
$DIMEXO
 40
0.0625
  9
$DIMDLI
 40
0.38
  9
$DIMRND
 40
0.0
  9
$DIMDLE
 40
0.0
  9
$DIMEXE
 40
0.18
  9
$DIMTP
 40
0.0
  9
$DIMTM
 40
0.0
  9
$DIMTXT
 40
0.18
  9
$DIMCEN
 40
0.09
  9
$DIMTSZ
 40
0.0
  9
$DIMTOL
 70
     0
  9
$DIMLIM
 70
     0
  9
$DIMTIH
 70
     1
  9
$DIMTOH
 70
     1
  9
$DIMSE1
 70
     0
  9
$DIMSE2
 70
     0
  9
$DIMTAD
 70
     0
  9
$DIMZIN
 70
     0
  9
$DIMBLK
  1

  9
$DIMASO
 70
     1
  9
$DIMSHO
 70
     0
  9
$DIMPOST
  1

  9
$DIMAPOST
  1

  9
$DIMALT
 70
     0
  9
$DIMALTD
 70
     2
  9
$DIMALTF
 40
25.4
  9
$DIMLFAC
 40
1.0
  9
$DIMTOFL
 70
     0
  9
$DIMTVP
 40
0.0
  9
$DIMTIX
 70
     0
  9
$DIMSOXD
 70
     0
  9
$DIMSAH
 70
     0
  9
$DIMBLK1
  1

  9
$DIMBLK2
  1

  9
$DIMSTYLE
  2
Standard
  9
$DIMCLRD
 70
     0
  9
$DIMCLRE
 70
     0
  9
$DIMCLRT
 70
     0
  9
$DIMTFAC
 40
1.0
  9
$DIMGAP
 40
0.09
  9
$DIMJUST
 70
     0
  9
$DIMSD1
 70
     0
  9
$DIMSD2
 70
     0
  9
$DIMTOLJ
 70
     1
  9
$DIMTZIN
 70
     0
  9
$DIMALTZ
 70
     0
  9
$DIMALTTZ
 70
     0
  9
$DIMUPT
 70
     0
  9
$DIMDEC
 70
     4
  9
$DIMTDEC
 70
     4
  9
$DIMALTU
 70
     2
  9
$DIMALTTD
 70
     2
  9
$DIMTXSTY
  7
Standard
  9
$DIMAUNIT
 70
     0
  9
$DIMADEC
 70
     0
  9
$DIMALTRND
 40
0.0
  9
$DIMAZIN
 70
     0
  9
$DIMDSEP
 70
    46
  9
$DIMATFIT
 70
     3
  9
$DIMFRAC
 70
     0
  9
$DIMLDRBLK
  1

  9
$DIMLUNIT
 70
     2
  9
$DIMLWD
 70
    -2
  9
$DIMLWE
 70
    -2
  9
$DIMTMOVE
 70
     2
  9
$DIMFXL
 40
1.0
  9
$DIMFXLON
 70
     0
  9
$DIMJOGANG
 40
0.7853981633974483
  9
$DIMTFILL
 70
     0
  9
$DIMTFILLCLR
 70
     0
  9
$DIMARCSYM
 70
     0
  9
$DIMLTYPE
  6

  9
$DIMLTEX1
  6

  9
$DIMLTEX2
  6

  9
$LUNITS
 70
     2
  9
$LUPREC
 70
     4
  9
$SKETCHINC
 40
0.1
  9
$FILLETRAD
 40
0.0
  9
$AUNITS
 70
     0
  9
$AUPREC
 70
     0
  9
$MENU
  1
.
  9
$ELEVATION
 40
0.0
  9
$PELEVATION
 40
0.0
  9
$THICKNESS
 40
0.0
  9
$LIMCHECK
 70
     0
  9
$CHAMFERA
 40
0.0
  9
$CHAMFERB
 40
0.0
  9
$CHAMFERC
 40
1.0
  9
$CHAMFERD
 40
0.0
  9
$SKPOLY
 70
     0
  9
$TDCREATE
 40
2453354.133792488
  9
$TDUCREATE
 40
2453353.717125822
  9
$TDUPDATE
 40
2447222.566688657
  9
$TDUUPDATE
 40
2447222.150021991
  9
$TDINDWG
 40
0.0441782523
  9
$TDUSRTIMER
 40
0.0441666782
  9
$USRTIMER
 70
     1
  9
$ANGBASE
 50
0.0
  9
$ANGDIR
 70
     0
  9
$PDMODE
 70
     0
  9
$PDSIZE
 40
0.0
  9
$PLINEWID
 40
0.0
  9
$SPLFRAME
 70
     0
  9
$SPLINETYPE
 70
     6
  9
$SPLINESEGS
 70
     8
  9
$HANDSEED
  5
129B
  9
$SURFTAB1
 70
     6
  9
$SURFTAB2
 70
     6
  9
$SURFTYPE
 70
     6
  9
$SURFU
 70
     6
  9
$SURFV
 70
     6
  9
$UCSBASE
  2

  9
$UCSNAME
  2

  9
$UCSORG
 10
0.0
 20
0.0
 30
0.0
  9
$UCSXDIR
 10
1.0
 20
0.0
 30
0.0
  9
$UCSYDIR
 10
0.0
 20
1.0
 30
0.0
  9
$UCSORTHOREF
  2

  9
$UCSORTHOVIEW
 70
     0
  9
$UCSORGTOP
 10
0.0
 20
0.0
 30
0.0
  9
$UCSORGBOTTOM
 10
0.0
 20
0.0
 30
0.0
  9
$UCSORGLEFT
 10
0.0
 20
0.0
 30
0.0
  9
$UCSORGRIGHT
 10
0.0
 20
0.0
 30
0.0
  9
$UCSORGFRONT
 10
0.0
 20
0.0
 30
0.0
  9
$UCSORGBACK
 10
0.0
 20
0.0
 30
0.0
  9
$PUCSBASE
  2

  9
$PUCSNAME
  2

  9
$PUCSORG
 10
0.0
 20
0.0
 30
0.0
  9
$PUCSXDIR
 10
1.0
 20
0.0
 30
0.0
  9
$PUCSYDIR
 10
0.0
 20
1.0
 30
0.0
  9
$PUCSORTHOREF
  2

  9
$PUCSORTHOVIEW
 70
     0
  9
$PUCSORGTOP
 10
0.0
 20
0.0
 30
0.0
  9
$PUCSORGBOTTOM
 10
0.0
 20
0.0
 30
0.0
  9
$PUCSORGLEFT
 10
0.0
 20
0.0
 30
0.0
  9
$PUCSORGRIGHT
 10
0.0
 20
0.0
 30
0.0
  9
$PUCSORGFRONT
 10
0.0
 20
0.0
 30
0.0
  9
$PUCSORGBACK
 10
0.0
 20
0.0
 30
0.0
  9
$USERI1
 70
     0
  9
$USERI2
 70
     0
  9
$USERI3
 70
     0
  9
$USERI4
 70
     0
  9
$USERI5
 70
     0
  9
$USERR1
 40
0.0
  9
$USERR2
 40
0.0
  9
$USERR3
 40
0.0
  9
$USERR4
 40
0.0
  9
$USERR5
 40
0.0
  9
$WORLDVIEW
 70
     1
  9
$SHADEDGE
 70
     3
  9
$SHADEDIF
 70
    70
  9
$TILEMODE
 70
     1
  9
$MAXACTVP
 70
    64
  9
$PINSBASE
 10
0.0
 20
0.0
 30
0.0
  9
$PLIMCHECK
 70
     0
  9
$PEXTMIN
 10
1.000000000000000E+20
 20
1.000000000000000E+20
 30
1.000000000000000E+20
  9
$PEXTMAX
 10
-1.000000000000000E+20
 20
-1.000000000000000E+20
 30
-1.000000000000000E+20
  9
$PLIMMIN
 10
0.0
 20
0.0
  9
$PLIMMAX
 10
12.0
 20
9.0
  9
$UNITMODE
 70
     0
  9
$VISRETAIN
 70
     1
  9
$PLINEGEN
 70
     0
  9
$PSLTSCALE
 70
     1
  9
$TREEDEPTH
 70
  3020
  9
$CMLSTYLE
  2
Standard
  9
$CMLJUST
 70
     0
  9
$CMLSCALE
 40
1.0
  9
$PROXYGRAPHICS
 70
     1
  9
$MEASUREMENT
 70
     0
  9
$CELWEIGHT
370
    -1
  9
$ENDCAPS
280
     0
  9
$JOINSTYLE
280
     0
  9
$LWDISPLAY
290
     0
  9
$INSUNITS
 70
     0
  9
$HYPERLINKBASE
  1

  9
$STYLESHEET
  1

  9
$XEDIT
290
     0
  9
$CEPSNTYPE
380
     0
  9
$PSTYLEMODE
290
     1
  9
$FINGERPRINTGUID
  2
{CFFC420C-8D9B-437F-BF38-94B4ECA3BCAE}
  9
$VERSIONGUID
  2
{FAEB1C32-E019-11D5-929B-00C0DF256EC4}
  9
$EXTNAMES
290
     1
  9
$PSVPSCALE
 40
0.0
  9
$OLESTARTUP
290
     0
  9
$SORTENTS
280
   127
  9
$INDEXCTL
280
     0
  9
$HIDETEXT
280
     1
  9
$XCLIPFRAME
290
     0
  9
$HALOGAP
280
     0
  9
$OBSCOLOR
 70
   257
  9
$OBSLTYPE
280
     0
  9
$INTERSECTIONDISPLAY
280
     0
  9
$INTERSECTIONCOLOR
 70
   257
  9
$DIMASSOC
280
     2
  9
$PROJECTNAME
  1

  9
$CAMERADISPLAY
290
     0
  9
$LENSLENGTH
 40
50.0
  9
$CAMERAHEIGHT
 40
0.0
  9
$STEPSPERSEC
 40
2.0
  9
$STEPSIZE
 40
6.0
  9
$3DDWFPREC
 40
2.0
  9
$PSOLWIDTH
 40
0.25
  9
$PSOLHEIGHT
 40
4.0
  9
$LOFTANG1
 40
1.570796326794897
  9
$LOFTANG2
 40
1.570796326794897
  9
$LOFTMAG1
 40
0.0
  9
$LOFTMAG2
 40
0.0
  9
$LOFTPARAM
 70
     7
  9
$LOFTNORMALS
280
     1
  9
$LATITUDE
 40
37.795
  9
$LONGITUDE
 40
-122.394
  9
$NORTHDIRECTION
 40
0.0
  9
$TIMEZONE
 70
 -8000
  9
$LIGHTGLYPHDISPLAY
280
     1
  9
$TILEMODELIGHTSYNCH
280
     1
  9
$SOLIDHIST
280
     1
  9
$SHOWHIST
280
     1
  9
$DWFFRAME
280
     2
  9
$DGNFRAME
280
     2
  9
$REALWORLDSCALE
290
     1
  9
$INTERFERECOLOR
 62
   256
  9
$CSHADOW
280
     0
  9
$SHADOWPLANELOCATION
 40
0.0
  0
ENDSEC
  0
SECTION
  2
CLASSES
  0
CLASS
  1
ACDBDICTIONARYWDFLT
  2
AcDbDictionaryWithDefault
  3
ObjectDBX Classes
 90
        0
 91
        4
280
     0
281
     0
  0
CLASS
  1
ACDBPLACEHOLDER
  2
AcDbPlaceHolder
  3
ObjectDBX Classes
 90
        0
 91
        1
280
     0
281
     0
  0
CLASS
  1
LAYOUT
  2
AcDbLayout
  3
ObjectDBX Classes
 90
        0
 91
        1
280
     0
281
     0
  0
CLASS
  1
DICTIONARYVAR
  2
AcDbDictionaryVar
  3
ObjectDBX Classes
 90
        0
 91
        4
280
     0
281
     0
  0
CLASS
  1
TABLESTYLE
  2
AcDbTableStyle
  3
ObjectDBX Classes
 90
     4095
 91
        4
280
     0
281
     0
  0
CLASS
  1
SCALE
  2
AcDbScale
  3
ObjectDBX Classes
 90
     1153
 91
        4
280
     0
281
     0
  0
ENDSEC
  0
SECTION
  2
TABLES
  0
TABLE
  2
VPORT
  5
8
330
0
100
AcDbSymbolTable
 70
     2
  0
VPORT
  5
97
330
8
100
AcDbSymbolTableRecord
100
AcDbViewportTableRecord
  2
*Active
 70
     0
 10
0.0
 20
0.0
 11
1.0
 21
1.0
 12
378166.5156417321
 22
-4586.36715
 13
0.0
 23
0.0
 14
0.5
 24
0.5
 15
0.5
 25
0.5
 16
0.0
 26
0.0
 36
1.0
 17
0.0
 27
0.0
 37
0.0
 40
2066.177382
 41
1.972972972850329
 42
50.0
 43
0.0
 44
0.0
 50
0.0
 51
0.0
 71
    16
 72
   100
 73
     1
 74
     3
 75
     0
 76
     0
 77
     0
 78
     0
281
     0
 65
     0
110
0.0
120
0.0
130
0.0
111
1.0
121
0.0
131
0.0
112
0.0
122
1.0
132
0.0
 79
     0
146
0.0
 60
     3
 61
     5
292
     1
282
     1
141
0.0
142
0.0
 63
   256
  0
ENDTAB
  0
TABLE
  2
LTYPE
  5
5
330
0
100
AcDbSymbolTable
 70
    13
  0
LTYPE
  5
14
330
5
100
AcDbSymbolTableRecord
100
AcDbLinetypeTableRecord
  2
ByBlock
 70
     0
  3

 72
    65
 73
     0
 40
0.0
  0
LTYPE
  5
15
330
5
100
AcDbSymbolTableRecord
100
AcDbLinetypeTableRecord
  2
ByLayer
 70
     0
  3

 72
    65
 73
     0
 40
0.0
  0
LTYPE
  5
16
330
5
100
AcDbSymbolTableRecord
100
AcDbLinetypeTableRecord
  2
Continuous
 70
     0
  3
Solid line
 72
    65
 73
     0
 40
0.0
  0
LTYPE
  5
1281
330
5
100
AcDbSymbolTableRecord
100
AcDbLinetypeTableRecord
  2
DASHED
 70
     0
  3
__ __ __ __ __ __ __ __ __ __ __ __ __ __ __
 72
    65
 73
     2
 40
0.75
 49
0.5
 74
     4
 75
     0
340
0
 46
1.0
 50
0.0
 44
0.0
 45
0.0
 49
-0.25
 74
     4
 75
     0
340
0
 46
1.0
 50
0.0
 44
0.0
 45
0.0
  0
LTYPE
  5
1282
330
5
100
AcDbSymbolTableRecord
100
AcDbLinetypeTableRecord
  2
HIDDEN
 70
     0
  3
_ _ _ _ _ _ _ _ _ _ _ _ _ _ _ _ _ _ _ _ _ _ _
 72
    65
 73
     2
 40
0.375
 49
0.25
 74
     4
 75
     0
340
0
 46
1.0
 50
0.0
 44
0.0
 45
0.0
 49
-0.125
 74
     4
 75
     0
340
0
 46
1.0
 50
0.0
 44
0.0
 45
0.0
  0
LTYPE
  5
1283
330
5
100
AcDbSymbolTableRecord
100
AcDbLinetypeTableRecord
  2
CENTER
 70
     0
  3
____ _ ____ _ ____ _ ____ _ ____ _ ____ _ ____
 72
    65
 73
     4
 40
2.0
 49
1.25
 74
     4
 75
     0
340
0
 46
1.0
 50
0.0
 44
0.0
 45
0.0
 49
-0.25
 74
     4
 75
     0
340
0
 46
1.0
 50
0.0
 44
0.0
 45
0.0
 49
0.25
 74
     4
 75
     0
340
0
 46
1.0
 50
0.0
 44
0.0
 45
0.0
 49
-0.25
 74
     4
 75
     0
340
0
 46
1.0
 50
0.0
 44
0.0
 45
0.0
  0
LTYPE
  5
1284
330
5
100
AcDbSymbolTableRecord
100
AcDbLinetypeTableRecord
  2
PHANTOM
 70
     0
  3
_____ _ _ _____ _ _ _____ _ _ _____ _ _ ____
 72
    65
 73
     6
 40
2.5
 49
1.25
 74
     4
 75
     0
340
0
 46
1.0
 50
0.0
 44
0.0
 45
0.0
 49
-0.25
 74
     4
 75
     0
340
0
 46
1.0
 50
0.0
 44
0.0
 45
0.0
 49
0.25
 74
     4
 75
     0
340
0
 46
1.0
 50
0.0
 44
0.0
 45
0.0
 49
-0.25
 74
     4
 75
     0
340
0
 46
1.0
 50
0.0
 44
0.0
 45
0.0
 49
0.25
 74
     4
 75
     0
340
0
 46
1.0
 50
0.0
 44
0.0
 45
0.0
 49
-0.25
 74
     4
 75
     0
340
0
 46
1.0
 50
0.0
 44
0.0
 45
0.0
  0
LTYPE
  5
1285
330
5
100
AcDbSymbolTableRecord
100
AcDbLinetypeTableRecord
  2
DOT
 70
     0
  3
...............................................
 72
    65
 73
     2
 40
0.25
 49
0.0
 74
     4
 75
     0
340
0
 46
1.0
 50
0.0
 44
0.0
 45
0.0
 49
-0.25
 74
     4
 75
     0
340
0
 46
1.0
 50
0.0
 44
0.0
 45
0.0
  0
LTYPE
  5
1286
330
5
100
AcDbSymbolTableRecord
100
AcDbLinetypeTableRecord
  2
DASHDOT
 70
     0
  3
__ . __ . __ . __ . __ . __ . __ . __ . __ . __
 72
    65
 73
     4
 40
1.0
 49
0.5
 74
     4
 75
     0
340
0
 46
1.0
 50
0.0
 44
0.0
 45
0.0
 49
-0.25
 74
     4
 75
     0
340
0
 46
1.0
 50
0.0
 44
0.0
 45
0.0
 49
0.0
 74
     4
 75
     0
340
0
 46
1.0
 50
0.0
 44
0.0
 45
0.0
 49
-0.25
 74
     4
 75
     0
340
0
 46
1.0
 50
0.0
 44
0.0
 45
0.0
  0
LTYPE
  5
1287
330
5
100
AcDbSymbolTableRecord
100
AcDbLinetypeTableRecord
  2
BORDER
 70
     0
  3
__ __ . __ __ . __ __ . __ __ . __ __ . __ __
 72
    65
 73
     6
 40
1.75
 49
0.5
 74
     4
 75
     0
340
0
 46
1.0
 50
0.0
 44
0.0
 45
0.0
 49
-0.25
 74
     4
 75
     0
340
0
 46
1.0
 50
0.0
 44
0.0
 45
0.0
 49
0.5
 74
     4
 75
     0
340
0
 46
1.0
 50
0.0
 44
0.0
 45
0.0
 49
-0.25
 74
     4
 75
     0
340
0
 46
1.0
 50
0.0
 44
0.0
 45
0.0
 49
0.0
 74
     4
 75
     0
340
0
 46
1.0
 50
0.0
 44
0.0
 45
0.0
 49
-0.25
 74
     4
 75
     0
340
0
 46
1.0
 50
0.0
 44
0.0
 45
0.0
  0
LTYPE
  5
1288
330
5
100
AcDbSymbolTableRecord
100
AcDbLinetypeTableRecord
  2
DIVIDE
 70
     0
  3
__ . . __ . . __ . . __ . . __ . . __ . . __
 72
    65
 73
     6
 40
1.25
 49
0.5
 74
     4
 75
     0
340
0
 46
1.0
 50
0.0
 44
0.0
 45
0.0
 49
-0.25
 74
     4
 75
     0
340
0
 46
1.0
 50
0.0
 44
0.0
 45
0.0
 49
0.0
 74
     4
 75
     0
340
0
 46
1.0
 50
0.0
 44
0.0
 45
0.0
 49
-0.25
 74
     4
 75
     0
340
0
 46
1.0
 50
0.0
 44
0.0
 45
0.0
 49
0.0
 74
     4
 75
     0
340
0
 46
1.0
 50
0.0
 44
0.0
 45
0.0
 49
-0.25
 74
     4
 75
     0
340
0
 46
1.0
 50
0.0
 44
0.0
 45
0.0
  0
LTYPE
  5
1289
330
5
100
AcDbSymbolTableRecord
100
AcDbLinetypeTableRecord
  2
DCTYPE1
 70
     0
  3
__ . . __ . . __ . . __ . . __ . . __ . . __
 72
    65
 73
     8
 40
2.0
 49
0.5
 74
     4
 75
     0
340
0
 46
1.0
 50
0.0
 44
0.0
 45
0.0
 49
-0.25
 74
     4
 75
     0
340
0
 46
1.0
 50
0.0
 44
0.0
 45
0.0
 49
0.125
 74
     4
 75
     0
340
0
 46
1.0
 50
0.0
 44
0.0
 45
0.0
 49
-0.25
 74
     4
 75
     0
340
0
 46
1.0
 50
0.0
 44
0.0
 45
0.0
 49
0.25
 74
     4
 75
     0
340
0
 46
1.0
 50
0.0
 44
0.0
 45
0.0
 49
-0.25
 74
     4
 75
     0
340
0
 46
1.0
 50
0.0
 44
0.0
 45
0.0
 49
0.125
 74
     4
 75
     0
340
0
 46
1.0
 50
0.0
 44
0.0
 45
0.0
 49
-0.25
 74
     4
 75
     0
340
0
 46
1.0
 50
0.0
 44
0.0
 45
0.0
  0
LTYPE
  5
128A
330
5
100
AcDbSymbolTableRecord
100
AcDbLinetypeTableRecord
  2
DCTYPE2
 70
     0
  3
__ . . __ . . __ . . __ . . __ . . __ . . __
 72
    65
 73
     6
 40
2.05
 49
1.0
 74
     4
 75
     0
340
0
 46
1.0
 50
0.0
 44
0.0
 45
0.0
 49
-0.3
 74
     4
 75
     0
340
0
 46
1.0
 50
0.0
 44
0.0
 45
0.0
 49
0.15
 74
     4
 75
     0
340
0
 46
1.0
 50
0.0
 44
0.0
 45
0.0
 49
-0.15
 74
     4
 75
     0
340
0
 46
1.0
 50
0.0
 44
0.0
 45
0.0
 49
0.15
 74
     4
 75
     0
340
0
 46
1.0
 50
0.0
 44
0.0
 45
0.0
 49
-0.3
 74
     4
 75
     0
340
0
 46
1.0
 50
0.0
 44
0.0
 45
0.0
  0
LTYPE
  5
128B
330
5
100
AcDbSymbolTableRecord
100
AcDbLinetypeTableRecord
  2
DCTYPE3
 70
     0
  3
__ . . __ . . __ . . __ . . __ . . __ . . __
 72
    65
 73
     6
 40
2.5
 49
0.8
 74
     4
 75
     0
340
0
 46
1.0
 50
0.0
 44
0.0
 45
0.0
 49
-0.2
 74
     4
 75
     0
340
0
 46
1.0
 50
0.0
 44
0.0
 45
0.0
 49
0.8
 74
     4
 75
     0
340
0
 46
1.0
 50
0.0
 44
0.0
 45
0.0
 49
-0.2
 74
     4
 75
     0
340
0
 46
1.0
 50
0.0
 44
0.0
 45
0.0
 49
0.3
 74
     4
 75
     0
340
0
 46
1.0
 50
0.0
 44
0.0
 45
0.0
 49
-0.2
 74
     4
 75
     0
340
0
 46
1.0
 50
0.0
 44
0.0
 45
0.0
  0
LTYPE
  5
128C
330
5
100
AcDbSymbolTableRecord
100
AcDbLinetypeTableRecord
  2
DCTYPE4
 70
     0
  3
__ . . __ . . __ . . __ . . __ . . __ . . __
 72
    65
 73
    10
 40
3.969999999999999
 49
1.75
 74
     4
 75
     0
340
0
 46
1.0
 50
0.0
 44
0.0
 45
0.0
 49
-0.3
 74
     4
 75
     0
340
0
 46
1.0
 50
0.0
 44
0.0
 45
0.0
 49
0.3
 74
     4
 75
     0
340
0
 46
1.0
 50
0.0
 44
0.0
 45
0.0
 49
-0.3
 74
     4
 75
     0
340
0
 46
1.0
 50
0.0
 44
0.0
 45
0.0
 49
0.06
 74
     4
 75
     0
340
0
 46
1.0
 50
0.0
 44
0.0
 45
0.0
 49
-0.3
 74
     4
 75
     0
340
0
 46
1.0
 50
0.0
 44
0.0
 45
0.0
 49
0.06
 74
     4
 75
     0
340
0
 46
1.0
 50
0.0
 44
0.0
 45
0.0
 49
-0.3
 74
     4
 75
     0
340
0
 46
1.0
 50
0.0
 44
0.0
 45
0.0
 49
0.3
 74
     4
 75
     0
340
0
 46
1.0
 50
0.0
 44
0.0
 45
0.0
 49
-0.3
 74
     4
 75
     0
340
0
 46
1.0
 50
0.0
 44
0.0
 45
0.0
  0
ENDTAB
  0
TABLE
  2
LAYER
  5
2
330
0
100
AcDbSymbolTable
 70
     4
  0
LAYER
  5
10
330
2
100
AcDbSymbolTableRecord
100
AcDbLayerTableRecord
  2
0
 70
     0
 62
     7
  6
Continuous
370
    -3
390
F
347
0
  0
LAYER
  5
2E
330
2
100
AcDbSymbolTableRecord
100
AcDbLayerTableRecord
  2
LAYER3
 70
     0
 62
     7
  6
Continuous
370
    -3
390
F
347
0
  0
LAYER
  5
2F
330
2
100
AcDbSymbolTableRecord
100
AcDbLayerTableRecord
  2
LAYER4
 70
     0
 62
     7
  6
Continuous
370
    -3
390
F
347
0
  0
LAYER
  5
30
330
2
100
AcDbSymbolTableRecord
100
AcDbLayerTableRecord
  2
LAYER5
 70
     0
 62
     7
  6
Continuous
370
    -3
390
F
347
0
  0
ENDTAB
  0
TABLE
  2
STYLE
  5
3
330
0
100
AcDbSymbolTable
 70
     2
  0
STYLE
  5
11
330
3
100
AcDbSymbolTableRecord
100
AcDbTextStyleTableRecord
  2
Standard
 70
     0
 40
0.0
 41
1.0
 50
0.0
 71
     0
 42
0.2
  3
txt
  4

  0
STYLE
  5
127C
330
3
100
AcDbSymbolTableRecord
100
AcDbTextStyleTableRecord
  2
_TCW_TXTSTY_4
 70
     0
 40
0.0
 41
0.41
 50
0.0
 71
     0
 42
16.0
  3
TXT.SHX
  4

  0
ENDTAB
  0
TABLE
  2
VIEW
  5
6
330
0
100
AcDbSymbolTable
 70
     0
  0
ENDTAB
  0
TABLE
  2
UCS
  5
7
330
0
100
AcDbSymbolTable
 70
     0
  0
ENDTAB
  0
TABLE
  2
APPID
  5
9
330
0
100
AcDbSymbolTable
 70
     2
  0
APPID
  5
12
330
9
100
AcDbSymbolTableRecord
100
AcDbRegAppTableRecord
  2
ACAD
 70
     0
  0
APPID
  5
1280
330
9
100
AcDbSymbolTableRecord
100
AcDbRegAppTableRecord
  2
TCAD
 70
     0
  0
ENDTAB
  0
TABLE
  2
DIMSTYLE
  5
A
330
0
100
AcDbSymbolTable
 70
     1
100
AcDbDimStyleTable
  0
DIMSTYLE
105
27
330
A
100
AcDbSymbolTableRecord
100
AcDbDimStyleTableRecord
  2
Standard
 70
     0
340
11
  0
ENDTAB
  0
TABLE
  2
BLOCK_RECORD
  5
1
330
0
100
AcDbSymbolTable
 70
     0
  0
BLOCK_RECORD
  5
1F
102
{ACAD_XDICTIONARY
360
1298
102
}
330
1
100
AcDbSymbolTableRecord
100
AcDbBlockTableRecord
  2
*Model_Space
340
22
 70
     0
280
     1
281
     0
  0
BLOCK_RECORD
  5
73
330
1
100
AcDbSymbolTableRecord
100
AcDbBlockTableRecord
  2
*Paper_Space
340
74
 70
     0
280
     1
281
     0
  0
ENDTAB
  0
ENDSEC
  0
SECTION
  2
BLOCKS
  0
BLOCK
  5
20
330
1F
100
AcDbEntity
  8
0
100
AcDbBlockBegin
  2
*Model_Space
 70
     0
 10
0.0
 20
0.0
 30
0.0
  3
*Model_Space
  1

  0
ENDBLK
  5
21
330
1F
100
AcDbEntity
  8
0
100
AcDbBlockEnd
  0
BLOCK
  5
75
330
73
100
AcDbEntity
 67
     1
  8
0
100
AcDbBlockBegin
  2
*Paper_Space
 70
     0
 10
0.0
 20
0.0
 30
0.0
  3
*Paper_Space
  1

  0
ENDBLK
  5
76
330
73
100
AcDbEntity
 67
     1
  8
0
100
AcDbBlockEnd
  0
ENDSEC
  0
SECTION
  2
ENTITIES
  0
LWPOLYLINE
  5
32
330
1F
100
AcDbEntity
  8
0
  6
Continuous
 62
     7
100
AcDbPolyline
 90
        3
 70
     0
 43
2.5
 10
378231.4375
 20
-3737.5874
 10
378041.4375
 20
-3737.5874
 10
378041.4375
 20
-3737.5874
  0
LWPOLYLINE
  5
37
330
1F
100
AcDbEntity
  8
0
  6
Continuous
 62
     7
100
AcDbPolyline
 90
        3
 70
     0
 43
2.5
 10
378231.4375
 20
-3736.5874
 10
378231.4375
 20
-3585.5322
 10
378231.4375
 20
-3585.5322
  0
LWPOLYLINE
  5
3C
330
1F
100
AcDbEntity
  8
0
  6
Continuous
 62
     7
100
AcDbPolyline
 90
        2
 70
     0
 43
2.5
 10
378041.4375
 20
-3736.5889
 10
378041.4375
 20
-3585.5344
  0
LWPOLYLINE
  5
40
330
1F
100
AcDbEntity
  8
0
  6
Continuous
 62
     7
100
AcDbPolyline
 90
        2
 70
     0
 43
2.5
 10
378203.7813
 20
-3585.5781
 10
378200.0313
 20
-3692.7471
  0
LWPOLYLINE
  5
44
330
1F
100
AcDbEntity
  8
0
  6
Continuous
 62
     7
100
AcDbPolyline
 90
        2
 70
     0
 43
2.5
 10
378195.0313
 20
-3697.5728
 10
378077.5625
 20
-3697.5745
  0
LWPOLYLINE
  5
48
330
1F
100
AcDbEntity
  8
0
  6
Continuous
 62
     7
100
AcDbPolyline
 90
        2
 70
     0
 43
2.5
 10
378072.5625
 20
-3692.7473
 10
378068.8125
 20
-3585.5781
  0
LWPOLYLINE
  5
4C
330
1F
100
AcDbEntity
  8
0
  6
Continuous
 62
     7
100
AcDbPolyline
 90
        2
 70
     0
 43
0.0
 10
378237.2813
 20
-3664.061
 10
378236.6875
 20
-3664.061
  0
LWPOLYLINE
  5
50
330
1F
100
AcDbEntity
  8
0
  6
Continuous
 62
     7
100
AcDbPolyline
 90
        2
 70
     0
 43
0.0
 10
378234.1875
 20
-3667.1492
 10
378233.5625
 20
-3667.1492
  0
LWPOLYLINE
  5
54
330
1F
100
AcDbEntity
  8
0
  6
Continuous
 62
     7
100
AcDbPolyline
 90
        2
 70
     0
 43
0.0
 10
378237.2813
 20
-3670.2373
 10
378236.6875
 20
-3670.2373
  0
LWPOLYLINE
  5
58
330
1F
100
AcDbEntity
  8
0
  6
Continuous
 62
     7
100
AcDbPolyline
 90
        2
 70
     0
 43
0.0
 10
378234.1875
 20
-3673.3254
 10
378233.5625
 20
-3673.3254
  0
LWPOLYLINE
  5
5C
330
1F
100
AcDbEntity
  8
0
  6
Continuous
 62
     7
100
AcDbPolyline
 90
        2
 70
     0
 43
0.0
 10
378237.2813
 20
-3676.4136
 10
378236.6875
 20
-3676.4136
  0
LWPOLYLINE
  5
60
330
1F
100
AcDbEntity
  8
0
  6
Continuous
 62
     7
100
AcDbPolyline
 90
        2
 70
     0
 43
0.0
 10
378234.1875
 20
-3679.5017
 10
378233.5625
 20
-3679.5017
  0
LWPOLYLINE
  5
64
330
1F
100
AcDbEntity
  8
0
  6
Continuous
 62
     7
100
AcDbPolyline
 90
        2
 70
     0
 43
0.0
 10
378237.2813
 20
-3682.5898
 10
378236.6875
 20
-3682.5898
  0
LWPOLYLINE
  5
68
330
1F
100
AcDbEntity
  8
0
  6
Continuous
 62
     7
100
AcDbPolyline
 90
        2
 70
     0
 43
0.0
 10
378234.1875
 20
-3685.678
 10
378233.5625
 20
-3685.678
  0
LWPOLYLINE
  5
128D
330
1F
100
AcDbEntity
  8
0
  6
Continuous
 62
     7
100
AcDbPolyline
 90
        2
 70
     0
 43
0.0
 10
378237.2813
 20
-3688.7661
 10
378236.6875
 20
-3688.7661
  0
LWPOLYLINE
  5
70
330
1F
100
AcDbEntity
  8
0
  6
Continuous
 62
     7
100
AcDbPolyline
 90
        2
 70
     0
 43
0.0
 10
378234.1875
 20
-3691.854
 10
378233.5625
 20
-3691.854
  0
LWPOLYLINE
  5
128E
330
1F
100
AcDbEntity
  8
0
  6
Continuous
 62
     7
100
AcDbPolyline
 90
        2
 70
     0
 43
0.0
 10
378237.2813
 20
-3694.9421
 10
378236.6875
 20
-3694.9421
  0
LWPOLYLINE
  5
78
330
1F
100
AcDbEntity
  8
0
  6
Continuous
 62
     7
100
AcDbPolyline
 90
        2
 70
     0
 43
0.0
 10
378234.1875
 20
-3698.0303
 10
378233.5625
 20
-3698.0303
  0
LWPOLYLINE
  5
7C
330
1F
100
AcDbEntity
  8
0
  6
Continuous
 62
     7
100
AcDbPolyline
 90
        2
 70
     0
 43
0.0
 10
378237.2813
 20
-3701.1187
 10
378236.6875
 20
-3701.1187
  0
LWPOLYLINE
  5
80
330
1F
100
AcDbEntity
  8
0
  6
Continuous
 62
     7
100
AcDbPolyline
 90
        2
 70
     0
 43
0.0
 10
378234.1875
 20
-3704.2065
 10
378233.5625
 20
-3704.2065
  0
LWPOLYLINE
  5
84
330
1F
100
AcDbEntity
  8
0
  6
Continuous
 62
     7
100
AcDbPolyline
 90
        2
 70
     0
 43
0.0
 10
378237.2813
 20
-3707.2949
 10
378236.6875
 20
-3707.2949
  0
LWPOLYLINE
  5
88
330
1F
100
AcDbEntity
  8
0
  6
Continuous
 62
     7
100
AcDbPolyline
 90
        2
 70
     0
 43
0.0
 10
378234.1875
 20
-3710.3828
 10
378233.5625
 20
-3710.3828
  0
LWPOLYLINE
  5
8C
330
1F
100
AcDbEntity
  8
0
  6
Continuous
 62
     7
100
AcDbPolyline
 90
        2
 70
     0
 43
0.0
 10
378237.2813
 20
-3713.4709
 10
378236.6875
 20
-3713.4709
  0
LWPOLYLINE
  5
90
330
1F
100
AcDbEntity
  8
0
  6
Continuous
 62
     7
100
AcDbPolyline
 90
        2
 70
     0
 43
0.0
 10
378234.1875
 20
-3716.5591
 10
378233.5625
 20
-3716.5591
  0
LWPOLYLINE
  5
94
330
1F
100
AcDbEntity
  8
0
  6
Continuous
 62
     7
100
AcDbPolyline
 90
        2
 70
     0
 43
0.0
 10
378237.2813
 20
-3719.6472
 10
378236.6875
 20
-3719.6472
  0
LWPOLYLINE
  5
128F
330
1F
100
AcDbEntity
  8
0
  6
Continuous
 62
     7
100
AcDbPolyline
 90
        2
 70
     0
 43
0.0
 10
378234.1875
 20
-3722.7354
 10
378233.5625
 20
-3722.7354
  0
LWPOLYLINE
  5
1290
330
1F
100
AcDbEntity
  8
0
  6
Continuous
 62
     7
100
AcDbPolyline
 90
        2
 70
     0
 43
0.0
 10
378237.2813
 20
-3725.8235
 10
378236.6875
 20
-3725.8235
  0
LWPOLYLINE
  5
1291
330
1F
100
AcDbEntity
  8
0
  6
Continuous
 62
     7
100
AcDbPolyline
 90
        2
 70
     0
 43
0.0
 10
378234.1875
 20
-3728.9116
 10
378233.5625
 20
-3728.9116
  0
LWPOLYLINE
  5
1292
330
1F
100
AcDbEntity
  8
0
  6
Continuous
 62
     7
100
AcDbPolyline
 90
        2
 70
     0
 43
0.0
 10
378237.2813
 20
-3731.9998
 10
378236.6875
 20
-3731.9998
  0
LWPOLYLINE
  5
1293
330
1F
100
AcDbEntity
  8
0
  6
Continuous
 62
     7
100
AcDbPolyline
 90
        2
 70
     0
 43
0.0
 10
378234.1875
 20
-3735.0879
 10
378233.5625
 20
-3735.0879
  0
LWPOLYLINE
  5
1294
330
1F
100
AcDbEntity
  8
0
  6
Continuous
 62
     7
100
AcDbPolyline
 90
        2
 70
     0
 43
0.0
 10
378237.2813
 20
-3738.176
 10
378236.6875
 20
-3738.176
  0
LWPOLYLINE
  5
1295
330
1F
100
AcDbEntity
  8
0
  6
Continuous
 62
     7
100
AcDbPolyline
 90
        2
 70
     0
 43
0.0
 10
378231.125
 20
-3738.176
 10
378230.5
 20
-3738.176
  0
LWPOLYLINE
  5
1296
330
1F
100
AcDbEntity
  8
0
  6
Continuous
 62
     7
100
AcDbPolyline
 90
        2
 70
     0
 43
0.0
 10
378224.9375
 20
-3738.176
 10
378224.3125
 20
-3738.176
  0
LWPOLYLINE
  5
1297
330
1F
100
AcDbEntity
  8
0
  6
Continuous
 62
     7
100
AcDbPolyline
 90
        2
 70
     0
 43
0.0
 10
378218.75
 20
-3738.176
 10
378218.125
 20
-3738.176
  0
LWPOLYLINE
  5
BC
330
1F
100
AcDbEntity
  8
0
  6
Continuous
 62
     7
100
AcDbPolyline
 90
        2
 70
     0
 43
0.0
 10
378212.5625
 20
-3738.176
 10
378211.9688
 20
-3738.176
  0
LWPOLYLINE
  5
C0
330
1F
100
AcDbEntity
  8
0
  6
Continuous
 62
     7
100
AcDbPolyline
 90
        2
 70
     0
 43
0.0
 10
378206.4063
 20
-3738.176
 10
378205.7813
 20
-3738.176
  0
LWPOLYLINE
  5
C4
330
1F
100
AcDbEntity
  8
0
  6
Continuous
 62
     7
100
AcDbPolyline
 90
        2
 70
     0
 43
0.0
 10
378200.2188
 20
-3738.176
 10
378199.625
 20
-3738.176
  0
LWPOLYLINE
  5
C8
330
1F
100
AcDbEntity
  8
0
  6
Continuous
 62
     7
100
AcDbPolyline
 90
        2
 70
     0
 43
0.0
 10
378194.0625
 20
-3738.176
 10
378193.4375
 20
-3738.176
  0
LWPOLYLINE
  5
CC
330
1F
100
AcDbEntity
  8
0
  6
Continuous
 62
     7
100
AcDbPolyline
 90
        2
 70
     0
 43
0.0
 10
378187.875
 20
-3738.176
 10
378187.25
 20
-3738.176
  0
LWPOLYLINE
  5
D0
330
1F
100
AcDbEntity
  8
0
  6
Continuous
 62
     7
100
AcDbPolyline
 90
        2
 70
     0
 43
0.0
 10
378181.6875
 20
-3738.176
 10
378181.0625
 20
-3738.176
  0
LWPOLYLINE
  5
D4
330
1F
100
AcDbEntity
  8
0
  6
Continuous
 62
     7
100
AcDbPolyline
 90
        2
 70
     0
 43
0.0
 10
378175.5
 20
-3738.176
 10
378174.9063
 20
-3738.176
  0
LWPOLYLINE
  5
D8
330
1F
100
AcDbEntity
  8
0
  6
Continuous
 62
     7
100
AcDbPolyline
 90
        2
 70
     0
 43
0.0
 10
378169.3438
 20
-3738.176
 10
378168.75
 20
-3738.176
  0
LWPOLYLINE
  5
DC
330
1F
100
AcDbEntity
  8
0
  6
Continuous
 62
     7
100
AcDbPolyline
 90
        2
 70
     0
 43
0.0
 10
378163.1875
 20
-3738.176
 10
378162.5625
 20
-3738.176
  0
LWPOLYLINE
  5
E0
330
1F
100
AcDbEntity
  8
0
  6
Continuous
 62
     7
100
AcDbPolyline
 90
        2
 70
     0
 43
0.0
 10
378157.0
 20
-3738.176
 10
378156.375
 20
-3738.176
  0
LWPOLYLINE
  5
E4
330
1F
100
AcDbEntity
  8
0
  6
Continuous
 62
     7
100
AcDbPolyline
 90
        2
 70
     0
 43
0.0
 10
378150.8125
 20
-3738.176
 10
378150.1875
 20
-3738.176
  0
LWPOLYLINE
  5
E8
330
1F
100
AcDbEntity
  8
0
  6
Continuous
 62
     7
100
AcDbPolyline
 90
        2
 70
     0
 43
0.0
 10
378144.625
 20
-3738.176
 10
378144.0313
 20
-3738.176
  0
LWPOLYLINE
  5
EC
330
1F
100
AcDbEntity
  8
0
  6
Continuous
 62
     7
100
AcDbPolyline
 90
        2
 70
     0
 43
0.0
 10
378138.4688
 20
-3738.176
 10
378137.875
 20
-3738.176
  0
LWPOLYLINE
  5
F0
330
1F
100
AcDbEntity
  8
0
  6
Continuous
 62
     7
100
AcDbPolyline
 90
        2
 70
     0
 43
0.0
 10
378132.3125
 20
-3738.176
 10
378131.6875
 20
-3738.176
  0
LWPOLYLINE
  5
F4
330
1F
100
AcDbEntity
  8
0
  6
Continuous
 62
     7
100
AcDbPolyline
 90
        2
 70
     0
 43
0.0
 10
378126.125
 20
-3738.176
 10
378125.5
 20
-3738.176
  0
LWPOLYLINE
  5
F8
330
1F
100
AcDbEntity
  8
0
  6
Continuous
 62
     7
100
AcDbPolyline
 90
        2
 70
     0
 43
0.0
 10
378119.9375
 20
-3738.176
 10
378119.3125
 20
-3738.176
  0
LWPOLYLINE
  5
FC
330
1F
100
AcDbEntity
  8
0
  6
Continuous
 62
     7
100
AcDbPolyline
 90
        2
 70
     0
 43
0.0
 10
378113.75
 20
-3738.176
 10
378113.1563
 20
-3738.176
  0
LWPOLYLINE
  5
100
330
1F
100
AcDbEntity
  8
0
  6
Continuous
 62
     7
100
AcDbPolyline
 90
        2
 70
     0
 43
0.0
 10
378107.5938
 20
-3738.176
 10
378107.0
 20
-3738.176
  0
LWPOLYLINE
  5
104
330
1F
100
AcDbEntity
  8
0
  6
Continuous
 62
     7
100
AcDbPolyline
 90
        2
 70
     0
 43
0.0
 10
378101.4375
 20
-3738.176
 10
378100.8125
 20
-3738.176
  0
LWPOLYLINE
  5
108
330
1F
100
AcDbEntity
  8
0
  6
Continuous
 62
     7
100
AcDbPolyline
 90
        2
 70
     0
 43
0.0
 10
378095.25
 20
-3738.176
 10
378094.625
 20
-3738.176
  0
LWPOLYLINE
  5
10C
330
1F
100
AcDbEntity
  8
0
  6
Continuous
 62
     7
100
AcDbPolyline
 90
        2
 70
     0
 43
0.0
 10
378089.0625
 20
-3738.176
 10
378088.4375
 20
-3738.176
  0
LWPOLYLINE
  5
110
330
1F
100
AcDbEntity
  8
0
  6
Continuous
 62
     7
100
AcDbPolyline
 90
        2
 70
     0
 43
0.0
 10
378082.875
 20
-3738.176
 10
378082.2813
 20
-3738.176
  0
LWPOLYLINE
  5
114
330
1F
100
AcDbEntity
  8
0
  6
Continuous
 62
     7
100
AcDbPolyline
 90
        2
 70
     0
 43
0.0
 10
378076.7188
 20
-3738.176
 10
378076.0938
 20
-3738.176
  0
LWPOLYLINE
  5
118
330
1F
100
AcDbEntity
  8
0
  6
Continuous
 62
     7
100
AcDbPolyline
 90
        2
 70
     0
 43
0.0
 10
378070.5313
 20
-3738.176
 10
378069.9375
 20
-3738.176
  0
LWPOLYLINE
  5
11C
330
1F
100
AcDbEntity
  8
0
  6
Continuous
 62
     7
100
AcDbPolyline
 90
        2
 70
     0
 43
0.0
 10
378064.375
 20
-3738.176
 10
378063.75
 20
-3738.176
  0
LWPOLYLINE
  5
120
330
1F
100
AcDbEntity
  8
0
  6
Continuous
 62
     7
100
AcDbPolyline
 90
        2
 70
     0
 43
0.0
 10
378058.1875
 20
-3738.176
 10
378057.5625
 20
-3738.176
  0
LWPOLYLINE
  5
124
330
1F
100
AcDbEntity
  8
0
  6
Continuous
 62
     7
100
AcDbPolyline
 90
        2
 70
     0
 43
0.0
 10
378052.0
 20
-3738.176
 10
378051.375
 20
-3738.176
  0
LWPOLYLINE
  5
128
330
1F
100
AcDbEntity
  8
0
  6
Continuous
 62
     7
100
AcDbPolyline
 90
        2
 70
     0
 43
0.0
 10
378045.8125
 20
-3738.176
 10
378045.2188
 20
-3738.176
  0
LWPOLYLINE
  5
12C
330
1F
100
AcDbEntity
  8
0
  6
Continuous
 62
     7
100
AcDbPolyline
 90
        2
 70
     0
 43
0.0
 10
378039.6563
 20
-3738.176
 10
378039.4688
 20
-3738.176
  0
LWPOLYLINE
  5
130
330
1F
100
AcDbEntity
  8
0
  6
Continuous
 62
     7
100
AcDbPolyline
 90
        2
 70
     0
 43
0.0
 10
378234.1875
 20
-3741.2642
 10
378233.5625
 20
-3741.2642
  0
LWPOLYLINE
  5
134
330
1F
100
AcDbEntity
  8
0
  6
Continuous
 62
     7
100
AcDbPolyline
 90
        2
 70
     0
 43
0.0
 10
378228.0
 20
-3741.2642
 10
378227.4063
 20
-3741.2642
  0
LWPOLYLINE
  5
138
330
1F
100
AcDbEntity
  8
0
  6
Continuous
 62
     7
100
AcDbPolyline
 90
        2
 70
     0
 43
0.0
 10
378221.8438
 20
-3741.2642
 10
378221.2188
 20
-3741.2642
  0
LWPOLYLINE
  5
13C
330
1F
100
AcDbEntity
  8
0
  6
Continuous
 62
     7
100
AcDbPolyline
 90
        2
 70
     0
 43
0.0
 10
378215.6875
 20
-3741.2642
 10
378215.0625
 20
-3741.2642
  0
LWPOLYLINE
  5
140
330
1F
100
AcDbEntity
  8
0
  6
Continuous
 62
     7
100
AcDbPolyline
 90
        2
 70
     0
 43
0.0
 10
378209.5
 20
-3741.2642
 10
378208.875
 20
-3741.2642
  0
LWPOLYLINE
  5
144
330
1F
100
AcDbEntity
  8
0
  6
Continuous
 62
     7
100
AcDbPolyline
 90
        2
 70
     0
 43
0.0
 10
378203.3125
 20
-3741.2642
 10
378202.6875
 20
-3741.2642
  0
LWPOLYLINE
  5
148
330
1F
100
AcDbEntity
  8
0
  6
Continuous
 62
     7
100
AcDbPolyline
 90
        2
 70
     0
 43
0.0
 10
378197.125
 20
-3741.2642
 10
378196.5
 20
-3741.2642
  0
LWPOLYLINE
  5
14C
330
1F
100
AcDbEntity
  8
0
  6
Continuous
 62
     7
100
AcDbPolyline
 90
        2
 70
     0
 43
0.0
 10
378190.9688
 20
-3741.2642
 10
378190.3438
 20
-3741.2642
  0
LWPOLYLINE
  5
150
330
1F
100
AcDbEntity
  8
0
  6
Continuous
 62
     7
100
AcDbPolyline
 90
        2
 70
     0
 43
0.0
 10
378184.7813
 20
-3741.2642
 10
378184.1875
 20
-3741.2642
  0
LWPOLYLINE
  5
154
330
1F
100
AcDbEntity
  8
0
  6
Continuous
 62
     7
100
AcDbPolyline
 90
        2
 70
     0
 43
0.0
 10
378178.625
 20
-3741.2642
 10
378178.0
 20
-3741.2642
  0
LWPOLYLINE
  5
158
330
1F
100
AcDbEntity
  8
0
  6
Continuous
 62
     7
100
AcDbPolyline
 90
        2
 70
     0
 43
0.0
 10
378172.4375
 20
-3741.2642
 10
378171.8125
 20
-3741.2642
  0
LWPOLYLINE
  5
15C
330
1F
100
AcDbEntity
  8
0
  6
Continuous
 62
     7
100
AcDbPolyline
 90
        2
 70
     0
 43
0.0
 10
378166.25
 20
-3741.2642
 10
378165.625
 20
-3741.2642
  0
LWPOLYLINE
  5
160
330
1F
100
AcDbEntity
  8
0
  6
Continuous
 62
     7
100
AcDbPolyline
 90
        2
 70
     0
 43
0.0
 10
378160.0625
 20
-3741.2642
 10
378159.4688
 20
-3741.2642
  0
LWPOLYLINE
  5
164
330
1F
100
AcDbEntity
  8
0
  6
Continuous
 62
     7
100
AcDbPolyline
 90
        2
 70
     0
 43
0.0
 10
378153.9063
 20
-3741.2642
 10
378153.3125
 20
-3741.2642
  0
LWPOLYLINE
  5
168
330
1F
100
AcDbEntity
  8
0
  6
Continuous
 62
     7
100
AcDbPolyline
 90
        2
 70
     0
 43
0.0
 10
378147.75
 20
-3741.2642
 10
378147.125
 20
-3741.2642
  0
LWPOLYLINE
  5
16C
330
1F
100
AcDbEntity
  8
0
  6
Continuous
 62
     7
100
AcDbPolyline
 90
        2
 70
     0
 43
0.0
 10
378141.5625
 20
-3741.2642
 10
378140.9375
 20
-3741.2642
  0
LWPOLYLINE
  5
170
330
1F
100
AcDbEntity
  8
0
  6
Continuous
 62
     7
100
AcDbPolyline
 90
        2
 70
     0
 43
0.0
 10
378135.375
 20
-3741.2642
 10
378134.75
 20
-3741.2642
  0
LWPOLYLINE
  5
174
330
1F
100
AcDbEntity
  8
0
  6
Continuous
 62
     7
100
AcDbPolyline
 90
        2
 70
     0
 43
0.0
 10
378129.1875
 20
-3741.2642
 10
378128.5938
 20
-3741.2642
  0
LWPOLYLINE
  5
178
330
1F
100
AcDbEntity
  8
0
  6
Continuous
 62
     7
100
AcDbPolyline
 90
        2
 70
     0
 43
0.0
 10
378123.0313
 20
-3741.2642
 10
378122.4375
 20
-3741.2642
  0
LWPOLYLINE
  5
17C
330
1F
100
AcDbEntity
  8
0
  6
Continuous
 62
     7
100
AcDbPolyline
 90
        2
 70
     0
 43
0.0
 10
378116.875
 20
-3741.2642
 10
378116.25
 20
-3741.2642
  0
LWPOLYLINE
  5
180
330
1F
100
AcDbEntity
  8
0
  6
Continuous
 62
     7
100
AcDbPolyline
 90
        2
 70
     0
 43
0.0
 10
378110.6875
 20
-3741.2642
 10
378110.0625
 20
-3741.2642
  0
LWPOLYLINE
  5
184
330
1F
100
AcDbEntity
  8
0
  6
Continuous
 62
     7
100
AcDbPolyline
 90
        2
 70
     0
 43
0.0
 10
378104.5
 20
-3741.2642
 10
378103.875
 20
-3741.2642
  0
LWPOLYLINE
  5
188
330
1F
100
AcDbEntity
  8
0
  6
Continuous
 62
     7
100
AcDbPolyline
 90
        2
 70
     0
 43
0.0
 10
378098.3125
 20
-3741.2642
 10
378097.7188
 20
-3741.2642
  0
LWPOLYLINE
  5
18C
330
1F
100
AcDbEntity
  8
0
  6
Continuous
 62
     7
100
AcDbPolyline
 90
        2
 70
     0
 43
0.0
 10
378092.1563
 20
-3741.2642
 10
378091.5313
 20
-3741.2642
  0
LWPOLYLINE
  5
190
330
1F
100
AcDbEntity
  8
0
  6
Continuous
 62
     7
100
AcDbPolyline
 90
        2
 70
     0
 43
0.0
 10
378085.9688
 20
-3741.2642
 10
378085.375
 20
-3741.2642
  0
LWPOLYLINE
  5
194
330
1F
100
AcDbEntity
  8
0
  6
Continuous
 62
     7
100
AcDbPolyline
 90
        2
 70
     0
 43
0.0
 10
378079.8125
 20
-3741.2642
 10
378079.1875
 20
-3741.2642
  0
LWPOLYLINE
  5
198
330
1F
100
AcDbEntity
  8
0
  6
Continuous
 62
     7
100
AcDbPolyline
 90
        2
 70
     0
 43
0.0
 10
378073.625
 20
-3741.2642
 10
378073.0
 20
-3741.2642
  0
LWPOLYLINE
  5
19C
330
1F
100
AcDbEntity
  8
0
  6
Continuous
 62
     7
100
AcDbPolyline
 90
        2
 70
     0
 43
0.0
 10
378067.4375
 20
-3741.2642
 10
378066.8125
 20
-3741.2642
  0
LWPOLYLINE
  5
1A0
330
1F
100
AcDbEntity
  8
0
  6
Continuous
 62
     7
100
AcDbPolyline
 90
        2
 70
     0
 43
0.0
 10
378061.2813
 20
-3741.2642
 10
378060.6563
 20
-3741.2642
  0
LWPOLYLINE
  5
1A4
330
1F
100
AcDbEntity
  8
0
  6
Continuous
 62
     7
100
AcDbPolyline
 90
        2
 70
     0
 43
0.0
 10
378055.0938
 20
-3741.2642
 10
378054.5
 20
-3741.2642
  0
LWPOLYLINE
  5
1A8
330
1F
100
AcDbEntity
  8
0
  6
Continuous
 62
     7
100
AcDbPolyline
 90
        2
 70
     0
 43
0.0
 10
378048.9375
 20
-3741.2642
 10
378048.3125
 20
-3741.2642
  0
LWPOLYLINE
  5
1AC
330
1F
100
AcDbEntity
  8
0
  6
Continuous
 62
     7
100
AcDbPolyline
 90
        2
 70
     0
 43
0.0
 10
378042.75
 20
-3741.2642
 10
378042.125
 20
-3741.2642
  0
LWPOLYLINE
  5
1B0
330
1F
100
AcDbEntity
  8
0
  6
Continuous
 62
     7
100
AcDbPolyline
 90
        2
 70
     0
 43
0.0
 10
378234.1875
 20
-3660.9729
 10
378233.5625
 20
-3660.9729
  0
LWPOLYLINE
  5
1B4
330
1F
100
AcDbEntity
  8
0
  6
Continuous
 62
     7
100
AcDbPolyline
 90
        2
 70
     0
 43
0.0
 10
378237.2813
 20
-3657.8848
 10
378236.6875
 20
-3657.8848
  0
LWPOLYLINE
  5
1B8
330
1F
100
AcDbEntity
  8
0
  6
Continuous
 62
     7
100
AcDbPolyline
 90
        2
 70
     0
 43
0.0
 10
378234.1875
 20
-3654.7966
 10
378233.5625
 20
-3654.7966
  0
LWPOLYLINE
  5
1BC
330
1F
100
AcDbEntity
  8
0
  6
Continuous
 62
     7
100
AcDbPolyline
 90
        2
 70
     0
 43
0.0
 10
378237.2813
 20
-3651.7085
 10
378236.6875
 20
-3651.7085
  0
LWPOLYLINE
  5
1C0
330
1F
100
AcDbEntity
  8
0
  6
Continuous
 62
     7
100
AcDbPolyline
 90
        2
 70
     0
 43
0.0
 10
378234.1875
 20
-3648.6204
 10
378233.5625
 20
-3648.6204
  0
LWPOLYLINE
  5
1C4
330
1F
100
AcDbEntity
  8
0
  6
Continuous
 62
     7
100
AcDbPolyline
 90
        2
 70
     0
 43
0.0
 10
378237.25
 20
-3645.5322
 10
378236.625
 20
-3645.5322
  0
LWPOLYLINE
  5
1C8
330
1F
100
AcDbEntity
  8
0
  6
Continuous
 62
     7
100
AcDbPolyline
 90
        2
 70
     0
 43
0.0
 10
378234.1875
 20
-3642.4443
 10
378233.5625
 20
-3642.4443
  0
LWPOLYLINE
  5
1CC
330
1F
100
AcDbEntity
  8
0
  6
Continuous
 62
     7
100
AcDbPolyline
 90
        2
 70
     0
 43
0.0
 10
378237.25
 20
-3639.356
 10
378236.625
 20
-3639.356
  0
LWPOLYLINE
  5
1D0
330
1F
100
AcDbEntity
  8
0
  6
Continuous
 62
     7
100
AcDbPolyline
 90
        2
 70
     0
 43
0.0
 10
378234.1875
 20
-3636.2681
 10
378233.5625
 20
-3636.2681
  0
LWPOLYLINE
  5
1D4
330
1F
100
AcDbEntity
  8
0
  6
Continuous
 62
     7
100
AcDbPolyline
 90
        2
 70
     0
 43
0.0
 10
378237.25
 20
-3633.1797
 10
378236.625
 20
-3633.1797
  0
LWPOLYLINE
  5
1D8
330
1F
100
AcDbEntity
  8
0
  6
Continuous
 62
     7
100
AcDbPolyline
 90
        2
 70
     0
 43
0.0
 10
378234.1875
 20
-3630.0918
 10
378233.5625
 20
-3630.0918
  0
LWPOLYLINE
  5
1DC
330
1F
100
AcDbEntity
  8
0
  6
Continuous
 62
     7
100
AcDbPolyline
 90
        2
 70
     0
 43
0.0
 10
378237.25
 20
-3627.0037
 10
378236.625
 20
-3627.0037
  0
LWPOLYLINE
  5
1E0
330
1F
100
AcDbEntity
  8
0
  6
Continuous
 62
     7
100
AcDbPolyline
 90
        2
 70
     0
 43
0.0
 10
378234.1875
 20
-3623.9155
 10
378233.5625
 20
-3623.9155
  0
LWPOLYLINE
  5
1E4
330
1F
100
AcDbEntity
  8
0
  6
Continuous
 62
     7
100
AcDbPolyline
 90
        2
 70
     0
 43
0.0
 10
378237.25
 20
-3620.8271
 10
378236.625
 20
-3620.8271
  0
LWPOLYLINE
  5
1E8
330
1F
100
AcDbEntity
  8
0
  6
Continuous
 62
     7
100
AcDbPolyline
 90
        2
 70
     0
 43
0.0
 10
378234.1875
 20
-3617.7393
 10
378233.5625
 20
-3617.7393
  0
LWPOLYLINE
  5
1EC
330
1F
100
AcDbEntity
  8
0
  6
Continuous
 62
     7
100
AcDbPolyline
 90
        2
 70
     0
 43
0.0
 10
378237.25
 20
-3614.6511
 10
378236.625
 20
-3614.6511
  0
LWPOLYLINE
  5
1F0
330
1F
100
AcDbEntity
  8
0
  6
Continuous
 62
     7
100
AcDbPolyline
 90
        2
 70
     0
 43
0.0
 10
378234.1875
 20
-3611.563
 10
378233.5625
 20
-3611.563
  0
LWPOLYLINE
  5
1F4
330
1F
100
AcDbEntity
  8
0
  6
Continuous
 62
     7
100
AcDbPolyline
 90
        2
 70
     0
 43
0.0
 10
378237.25
 20
-3608.4749
 10
378236.625
 20
-3608.4749
  0
LWPOLYLINE
  5
1F8
330
1F
100
AcDbEntity
  8
0
  6
Continuous
 62
     7
100
AcDbPolyline
 90
        2
 70
     0
 43
0.0
 10
378234.1875
 20
-3605.3867
 10
378233.5625
 20
-3605.3867
  0
LWPOLYLINE
  5
1FC
330
1F
100
AcDbEntity
  8
0
  6
Continuous
 62
     7
100
AcDbPolyline
 90
        2
 70
     0
 43
0.0
 10
378237.25
 20
-3602.2988
 10
378236.625
 20
-3602.2988
  0
LWPOLYLINE
  5
200
330
1F
100
AcDbEntity
  8
0
  6
Continuous
 62
     7
100
AcDbPolyline
 90
        2
 70
     0
 43
0.0
 10
378234.1875
 20
-3599.2104
 10
378233.5625
 20
-3599.2104
  0
LWPOLYLINE
  5
204
330
1F
100
AcDbEntity
  8
0
  6
Continuous
 62
     7
100
AcDbPolyline
 90
        2
 70
     0
 43
0.0
 10
378237.25
 20
-3596.1226
 10
378236.625
 20
-3596.1226
  0
LWPOLYLINE
  5
208
330
1F
100
AcDbEntity
  8
0
  6
Continuous
 62
     7
100
AcDbPolyline
 90
        2
 70
     0
 43
0.0
 10
378234.1875
 20
-3593.0342
 10
378233.5625
 20
-3593.0342
  0
LWPOLYLINE
  5
20C
330
1F
100
AcDbEntity
  8
0
  6
Continuous
 62
     7
100
AcDbPolyline
 90
        2
 70
     0
 43
0.0
 10
378237.25
 20
-3589.9463
 10
378236.625
 20
-3589.9463
  0
LWPOLYLINE
  5
210
330
1F
100
AcDbEntity
  8
0
  6
Continuous
 62
     7
100
AcDbPolyline
 90
        2
 70
     0
 43
0.0
 10
378234.1875
 20
-3586.8582
 10
378233.5625
 20
-3586.8582
  0
LWPOLYLINE
  5
214
330
1F
100
AcDbEntity
  8
0
  6
Continuous
 62
     7
100
AcDbPolyline
 90
        5
 70
     0
 43
0.0
 10
378041.4375
 20
-3737.5894
 10
378041.4375
 20
-3742.5913
 10
378237.4375
 20
-3742.5896
 10
378237.4375
 20
-3585.5325
 10
378237.4375
 20
-3585.5325
  0
LWPOLYLINE
  5
21B
330
1F
100
AcDbEntity
  8
0
  6
Continuous
 62
     7
100
AcDbPolyline
 90
        2
 70
     0
 43
0.0
 10
378155.375
 20
-3605.9502
 10
378152.125
 20
-3611.5508
  0
LWPOLYLINE
  5
21F
330
1F
100
AcDbEntity
  8
0
  6
Continuous
 62
     7
100
AcDbPolyline
 90
        2
 70
     0
 43
0.0
 10
378148.875
 20
-3617.1514
 10
378145.6563
 20
-3622.752
  0
LWPOLYLINE
  5
223
330
1F
100
AcDbEntity
  8
0
  6
Continuous
 62
     7
100
AcDbPolyline
 90
        2
 70
     0
 43
0.0
 10
378142.4375
 20
-3628.3525
 10
378139.1875
 20
-3633.9531
  0
LWPOLYLINE
  5
227
330
1F
100
AcDbEntity
  8
0
  6
Continuous
 62
     7
100
AcDbPolyline
 90
        2
 70
     0
 43
0.0
 10
378135.9688
 20
-3639.5537
 10
378132.75
 20
-3645.1543
  0
LWPOLYLINE
  5
22B
330
1F
100
AcDbEntity
  8
0
  6
Continuous
 62
     7
100
AcDbPolyline
 90
        2
 70
     0
 43
0.0
 10
378129.5
 20
-3650.7549
 10
378126.25
 20
-3656.3555
  0
LWPOLYLINE
  5
22F
330
1F
100
AcDbEntity
  8
0
  6
Continuous
 62
     7
100
AcDbPolyline
 90
        2
 70
     0
 43
0.0
 10
378123.0313
 20
-3661.9561
 10
378119.8125
 20
-3667.5566
  0
LWPOLYLINE
  5
233
330
1F
100
AcDbEntity
  8
0
  6
Continuous
 62
     7
100
AcDbPolyline
 90
        2
 70
     0
 43
0.0
 10
378165.0625
 20
-3611.5537
 10
378161.8125
 20
-3617.1543
  0
LWPOLYLINE
  5
237
330
1F
100
AcDbEntity
  8
0
  6
Continuous
 62
     7
100
AcDbPolyline
 90
        2
 70
     0
 43
0.0
 10
378158.5938
 20
-3622.7549
 10
378155.375
 20
-3628.3555
  0
LWPOLYLINE
  5
23B
330
1F
100
AcDbEntity
  8
0
  6
Continuous
 62
     7
100
AcDbPolyline
 90
        2
 70
     0
 43
0.0
 10
378152.125
 20
-3633.9561
 10
378148.875
 20
-3639.5566
  0
LWPOLYLINE
  5
23F
330
1F
100
AcDbEntity
  8
0
  6
Continuous
 62
     7
100
AcDbPolyline
 90
        2
 70
     0
 43
0.0
 10
378145.6563
 20
-3645.1572
 10
378142.4375
 20
-3650.7576
  0
LWPOLYLINE
  5
243
330
1F
100
AcDbEntity
  8
0
  6
Continuous
 62
     7
100
AcDbPolyline
 90
        2
 70
     0
 43
0.0
 10
378139.1875
 20
-3656.3582
 10
378135.9688
 20
-3661.9587
  0
LWPOLYLINE
  5
247
330
1F
100
AcDbEntity
  8
0
  6
Continuous
 62
     7
100
AcDbPolyline
 90
        2
 70
     0
 43
0.0
 10
378132.75
 20
-3667.5591
 10
378129.5
 20
-3673.1597
  0
LWPOLYLINE
  5
24B
330
1F
100
AcDbEntity
  8
0
  6
Continuous
 62
     7
100
AcDbPolyline
 90
        2
 70
     0
 43
0.0
 10
378174.7813
 20
-3617.1589
 10
378171.5625
 20
-3622.7595
  0
LWPOLYLINE
  5
24F
330
1F
100
AcDbEntity
  8
0
  6
Continuous
 62
     7
100
AcDbPolyline
 90
        2
 70
     0
 43
0.0
 10
378168.3125
 20
-3628.3601
 10
378165.0625
 20
-3633.9607
  0
LWPOLYLINE
  5
253
330
1F
100
AcDbEntity
  8
0
  6
Continuous
 62
     7
100
AcDbPolyline
 90
        2
 70
     0
 43
0.0
 10
378161.8438
 20
-3639.5613
 10
378158.625
 20
-3645.1619
  0
LWPOLYLINE
  5
257
330
1F
100
AcDbEntity
  8
0
  6
Continuous
 62
     7
100
AcDbPolyline
 90
        2
 70
     0
 43
0.0
 10
378155.375
 20
-3650.7625
 10
378152.125
 20
-3656.363
  0
LWPOLYLINE
  5
25B
330
1F
100
AcDbEntity
  8
0
  6
Continuous
 62
     7
100
AcDbPolyline
 90
        2
 70
     0
 43
0.0
 10
378148.9063
 20
-3661.9639
 10
378145.6875
 20
-3667.5645
  0
LWPOLYLINE
  5
25F
330
1F
100
AcDbEntity
  8
0
  6
Continuous
 62
     7
100
AcDbPolyline
 90
        2
 70
     0
 43
0.0
 10
378142.4375
 20
-3673.165
 10
378141.375
 20
-3674.9932
  0
LWPOLYLINE
  5
263
330
1F
100
AcDbEntity
  8
0
  6
Continuous
 62
     7
100
AcDbPolyline
 90
        2
 70
     0
 43
0.0
 10
378178.0
 20
-3633.9541
 10
378174.75
 20
-3639.5557
  0
LWPOLYLINE
  5
267
330
1F
100
AcDbEntity
  8
0
  6
Continuous
 62
     7
100
AcDbPolyline
 90
        2
 70
     0
 43
0.0
 10
378171.5313
 20
-3645.1567
 10
378168.3125
 20
-3650.7583
  0
LWPOLYLINE
  5
26B
330
1F
100
AcDbEntity
  8
0
  6
Continuous
 62
     7
100
AcDbPolyline
 90
        2
 70
     0
 43
0.0
 10
378165.0625
 20
-3656.3594
 10
378161.8125
 20
-3661.9609
  0
LWPOLYLINE
  5
26F
330
1F
100
AcDbEntity
  8
0
  6
Continuous
 62
     7
100
AcDbPolyline
 90
        2
 70
     0
 43
0.0
 10
378158.5938
 20
-3667.562
 10
378155.375
 20
-3673.1636
  0
LWPOLYLINE
  5
273
330
1F
100
AcDbEntity
  8
0
  6
Continuous
 62
     7
100
AcDbPolyline
 90
        2
 70
     0
 43
0.0
 10
378143.5
 20
-3604.1626
 10
378142.4375
 20
-3605.9585
  0
LWPOLYLINE
  5
277
330
1F
100
AcDbEntity
  8
0
  6
Continuous
 62
     7
100
AcDbPolyline
 90
        2
 70
     0
 43
0.0
 10
378139.2188
 20
-3611.5586
 10
378136.0
 20
-3617.1587
  0
LWPOLYLINE
  5
27B
330
1F
100
AcDbEntity
  8
0
  6
Continuous
 62
     7
100
AcDbPolyline
 90
        2
 70
     0
 43
0.0
 10
378132.75
 20
-3622.7588
 10
378129.5
 20
-3628.3589
  0
LWPOLYLINE
  5
27F
330
1F
100
AcDbEntity
  8
0
  6
Continuous
 62
     7
100
AcDbPolyline
 90
        2
 70
     0
 43
0.0
 10
378126.2813
 20
-3633.959
 10
378123.0625
 20
-3639.5591
  0
LWPOLYLINE
  5
283
330
1F
100
AcDbEntity
  8
0
  6
Continuous
 62
     7
100
AcDbPolyline
 90
        2
 70
     0
 43
0.0
 10
378119.8125
 20
-3645.1589
 10
378116.5625
 20
-3650.759
  0
LWPOLYLINE
  5
287
330
1F
100
AcDbEntity
  8
0
  6
Continuous
 62
     7
100
AcDbPolyline
 90
        2
 70
     0
 43
0.0
 10
378113.3438
 20
-3656.3591
 10
378110.125
 20
-3661.9592
  0
LWPOLYLINE
  5
28B
330
1F
100
AcDbEntity
  8
0
  6
Continuous
 62
     7
100
AcDbPolyline
 90
        2
 70
     0
 43
0.0
 10
378129.5
 20
-3605.9539
 10
378126.25
 20
-3611.5537
  0
LWPOLYLINE
  5
28F
330
1F
100
AcDbEntity
  8
0
  6
Continuous
 62
     7
100
AcDbPolyline
 90
        2
 70
     0
 43
0.0
 10
378123.0313
 20
-3617.1538
 10
378119.8125
 20
-3622.7537
  0
LWPOLYLINE
  5
293
330
1F
100
AcDbEntity
  8
0
  6
Continuous
 62
     7
100
AcDbPolyline
 90
        2
 70
     0
 43
0.0
 10
378116.5625
 20
-3628.3535
 10
378113.3125
 20
-3633.9534
  0
LWPOLYLINE
  5
297
330
1F
100
AcDbEntity
  8
0
  6
Continuous
 62
     7
100
AcDbPolyline
 90
        2
 70
     0
 43
0.0
 10
378110.0938
 20
-3639.5532
 10
378106.875
 20
-3645.1533
  0
LWPOLYLINE
  5
29B
330
1F
100
AcDbEntity
  8
0
  6
Continuous
 62
     7
100
AcDbPolyline
 90
        2
 70
     0
 43
0.0
 10
378103.625
 20
-3650.7532
 10
378100.375
 20
-3656.353
  0
LWPOLYLINE
  5
29F
330
1F
100
AcDbEntity
  8
0
  6
Continuous
 62
     7
100
AcDbPolyline
 90
        2
 70
     0
 43
0.0
 10
378113.3125
 20
-3611.5557
 10
378110.0938
 20
-3617.1558
  0
LWPOLYLINE
  5
2A3
330
1F
100
AcDbEntity
  8
0
  6
Continuous
 62
     7
100
AcDbPolyline
 90
        2
 70
     0
 43
0.0
 10
378106.875
 20
-3622.7559
 10
378103.625
 20
-3628.3557
  0
LWPOLYLINE
  5
2A7
330
1F
100
AcDbEntity
  8
0
  6
Continuous
 62
     7
100
AcDbPolyline
 90
        2
 70
     0
 43
0.0
 10
378100.375
 20
-3633.9556
 10
378098.4375
 20
-3637.3254
  0
LWPOLYLINE
  5
2AB
330
1F
100
AcDbEntity
  8
0
  6
Continuous
 62
     7
100
AcDbPolyline
 90
        2
 70
     0
 43
0.0
 10
378178.7813
 20
-3639.552
 10
378174.9375
 20
-3639.552
  0
LWPOLYLINE
  5
2AF
330
1F
100
AcDbEntity
  8
0
  6
Continuous
 62
     7
100
AcDbPolyline
 90
        2
 70
     0
 43
0.0
 10
378168.4688
 20
-3639.552
 10
378162.0
 20
-3639.552
  0
LWPOLYLINE
  5
2B3
330
1F
100
AcDbEntity
  8
0
  6
Continuous
 62
     7
100
AcDbPolyline
 90
        2
 70
     0
 43
0.0
 10
378155.5625
 20
-3639.552
 10
378149.0625
 20
-3639.552
  0
LWPOLYLINE
  5
2B7
330
1F
100
AcDbEntity
  8
0
  6
Continuous
 62
     7
100
AcDbPolyline
 90
        2
 70
     0
 43
0.0
 10
378142.625
 20
-3639.552
 10
378136.125
 20
-3639.552
  0
LWPOLYLINE
  5
2BB
330
1F
100
AcDbEntity
  8
0
  6
Continuous
 62
     7
100
AcDbPolyline
 90
        2
 70
     0
 43
0.0
 10
378129.6875
 20
-3639.552
 10
378123.1875
 20
-3639.552
  0
LWPOLYLINE
  5
2BF
330
1F
100
AcDbEntity
  8
0
  6
Continuous
 62
     7
100
AcDbPolyline
 90
        2
 70
     0
 43
0.0
 10
378116.75
 20
-3639.552
 10
378110.2813
 20
-3639.552
  0
LWPOLYLINE
  5
2C3
330
1F
100
AcDbEntity
  8
0
  6
Continuous
 62
     7
100
AcDbPolyline
 90
        2
 70
     0
 43
0.0
 10
378103.8125
 20
-3639.552
 10
378097.6875
 20
-3639.552
  0
LWPOLYLINE
  5
2C7
330
1F
100
AcDbEntity
  8
0
  6
Continuous
 62
     7
100
AcDbPolyline
 90
        2
 70
     0
 43
0.0
 10
378179.3125
 20
-3650.7522
 10
378174.9375
 20
-3650.7522
  0
LWPOLYLINE
  5
2CB
330
1F
100
AcDbEntity
  8
0
  6
Continuous
 62
     7
100
AcDbPolyline
 90
        2
 70
     0
 43
0.0
 10
378168.4688
 20
-3650.7522
 10
378162.0
 20
-3650.7522
  0
LWPOLYLINE
  5
2CF
330
1F
100
AcDbEntity
  8
0
  6
Continuous
 62
     7
100
AcDbPolyline
 90
        2
 70
     0
 43
0.0
 10
378155.5625
 20
-3650.7522
 10
378149.0625
 20
-3650.7522
  0
LWPOLYLINE
  5
2D3
330
1F
100
AcDbEntity
  8
0
  6
Continuous
 62
     7
100
AcDbPolyline
 90
        2
 70
     0
 43
0.0
 10
378142.625
 20
-3650.7522
 10
378136.125
 20
-3650.7522
  0
LWPOLYLINE
  5
2D7
330
1F
100
AcDbEntity
  8
0
  6
Continuous
 62
     7
100
AcDbPolyline
 90
        2
 70
     0
 43
0.0
 10
378129.6875
 20
-3650.7522
 10
378123.1875
 20
-3650.7522
  0
LWPOLYLINE
  5
2DB
330
1F
100
AcDbEntity
  8
0
  6
Continuous
 62
     7
100
AcDbPolyline
 90
        2
 70
     0
 43
0.0
 10
378116.75
 20
-3650.7522
 10
378110.2813
 20
-3650.7522
  0
LWPOLYLINE
  5
2DF
330
1F
100
AcDbEntity
  8
0
  6
Continuous
 62
     7
100
AcDbPolyline
 90
        2
 70
     0
 43
0.0
 10
378103.8125
 20
-3650.7522
 10
378097.3438
 20
-3650.7522
  0
LWPOLYLINE
  5
2E3
330
1F
100
AcDbEntity
  8
0
  6
Continuous
 62
     7
100
AcDbPolyline
 90
        2
 70
     0
 43
0.0
 10
378168.4688
 20
-3661.9524
 10
378162.0
 20
-3661.9524
  0
LWPOLYLINE
  5
2E7
330
1F
100
AcDbEntity
  8
0
  6
Continuous
 62
     7
100
AcDbPolyline
 90
        2
 70
     0
 43
0.0
 10
378155.5625
 20
-3661.9524
 10
378149.0625
 20
-3661.9524
  0
LWPOLYLINE
  5
2EB
330
1F
100
AcDbEntity
  8
0
  6
Continuous
 62
     7
100
AcDbPolyline
 90
        2
 70
     0
 43
0.0
 10
378142.625
 20
-3661.9524
 10
378136.125
 20
-3661.9524
  0
LWPOLYLINE
  5
2EF
330
1F
100
AcDbEntity
  8
0
  6
Continuous
 62
     7
100
AcDbPolyline
 90
        2
 70
     0
 43
0.0
 10
378129.6875
 20
-3661.9524
 10
378123.1875
 20
-3661.9524
  0
LWPOLYLINE
  5
2F3
330
1F
100
AcDbEntity
  8
0
  6
Continuous
 62
     7
100
AcDbPolyline
 90
        2
 70
     0
 43
0.0
 10
378116.75
 20
-3661.9524
 10
378110.2813
 20
-3661.9524
  0
LWPOLYLINE
  5
2F7
330
1F
100
AcDbEntity
  8
0
  6
Continuous
 62
     7
100
AcDbPolyline
 90
        2
 70
     0
 43
0.0
 10
378103.8125
 20
-3661.9524
 10
378102.1875
 20
-3661.9524
  0
LWPOLYLINE
  5
2FB
330
1F
100
AcDbEntity
  8
0
  6
Continuous
 62
     7
100
AcDbPolyline
 90
        2
 70
     0
 43
0.0
 10
378155.5625
 20
-3673.1523
 10
378149.0625
 20
-3673.1523
  0
LWPOLYLINE
  5
2FF
330
1F
100
AcDbEntity
  8
0
  6
Continuous
 62
     7
100
AcDbPolyline
 90
        2
 70
     0
 43
0.0
 10
378142.625
 20
-3673.1523
 10
378136.125
 20
-3673.1523
  0
LWPOLYLINE
  5
303
330
1F
100
AcDbEntity
  8
0
  6
Continuous
 62
     7
100
AcDbPolyline
 90
        2
 70
     0
 43
0.0
 10
378129.6875
 20
-3673.1523
 10
378123.1875
 20
-3673.1523
  0
LWPOLYLINE
  5
307
330
1F
100
AcDbEntity
  8
0
  6
Continuous
 62
     7
100
AcDbPolyline
 90
        2
 70
     0
 43
0.0
 10
378178.25
 20
-3628.3518
 10
378174.9375
 20
-3628.3518
  0
LWPOLYLINE
  5
30B
330
1F
100
AcDbEntity
  8
0
  6
Continuous
 62
     7
100
AcDbPolyline
 90
        2
 70
     0
 43
0.0
 10
378168.4688
 20
-3628.3518
 10
378162.0
 20
-3628.3518
  0
LWPOLYLINE
  5
30F
330
1F
100
AcDbEntity
  8
0
  6
Continuous
 62
     7
100
AcDbPolyline
 90
        2
 70
     0
 43
0.0
 10
378155.5625
 20
-3628.3518
 10
378149.0625
 20
-3628.3518
  0
LWPOLYLINE
  5
313
330
1F
100
AcDbEntity
  8
0
  6
Continuous
 62
     7
100
AcDbPolyline
 90
        2
 70
     0
 43
0.0
 10
378142.625
 20
-3628.3518
 10
378136.125
 20
-3628.3518
  0
LWPOLYLINE
  5
317
330
1F
100
AcDbEntity
  8
0
  6
Continuous
 62
     7
100
AcDbPolyline
 90
        2
 70
     0
 43
0.0
 10
378129.6875
 20
-3628.3518
 10
378123.1875
 20
-3628.3518
  0
LWPOLYLINE
  5
31B
330
1F
100
AcDbEntity
  8
0
  6
Continuous
 62
     7
100
AcDbPolyline
 90
        2
 70
     0
 43
0.0
 10
378116.75
 20
-3628.3518
 10
378110.2813
 20
-3628.3518
  0
LWPOLYLINE
  5
31F
330
1F
100
AcDbEntity
  8
0
  6
Continuous
 62
     7
100
AcDbPolyline
 90
        2
 70
     0
 43
0.0
 10
378103.8125
 20
-3628.3518
 10
378101.5625
 20
-3628.3518
  0
LWPOLYLINE
  5
323
330
1F
100
AcDbEntity
  8
0
  6
Continuous
 62
     7
100
AcDbPolyline
 90
        2
 70
     0
 43
0.0
 10
378177.6875
 20
-3617.1516
 10
378174.9375
 20
-3617.1516
  0
LWPOLYLINE
  5
327
330
1F
100
AcDbEntity
  8
0
  6
Continuous
 62
     7
100
AcDbPolyline
 90
        2
 70
     0
 43
0.0
 10
378168.4688
 20
-3617.1516
 10
378162.0
 20
-3617.1516
  0
LWPOLYLINE
  5
32B
330
1F
100
AcDbEntity
  8
0
  6
Continuous
 62
     7
100
AcDbPolyline
 90
        2
 70
     0
 43
0.0
 10
378155.5625
 20
-3617.1516
 10
378149.0625
 20
-3617.1516
  0
LWPOLYLINE
  5
32F
330
1F
100
AcDbEntity
  8
0
  6
Continuous
 62
     7
100
AcDbPolyline
 90
        2
 70
     0
 43
0.0
 10
378142.625
 20
-3617.1516
 10
378136.125
 20
-3617.1516
  0
LWPOLYLINE
  5
333
330
1F
100
AcDbEntity
  8
0
  6
Continuous
 62
     7
100
AcDbPolyline
 90
        2
 70
     0
 43
0.0
 10
378129.6875
 20
-3617.1516
 10
378123.1875
 20
-3617.1516
  0
LWPOLYLINE
  5
337
330
1F
100
AcDbEntity
  8
0
  6
Continuous
 62
     7
100
AcDbPolyline
 90
        2
 70
     0
 43
0.0
 10
378116.75
 20
-3617.1516
 10
378110.2813
 20
-3617.1516
  0
LWPOLYLINE
  5
33B
330
1F
100
AcDbEntity
  8
0
  6
Continuous
 62
     7
100
AcDbPolyline
 90
        2
 70
     0
 43
0.0
 10
378163.625
 20
-3605.9517
 10
378162.0
 20
-3605.9517
  0
LWPOLYLINE
  5
33F
330
1F
100
AcDbEntity
  8
0
  6
Continuous
 62
     7
100
AcDbPolyline
 90
        2
 70
     0
 43
0.0
 10
378155.5625
 20
-3605.9517
 10
378149.0625
 20
-3605.9517
  0
LWPOLYLINE
  5
343
330
1F
100
AcDbEntity
  8
0
  6
Continuous
 62
     7
100
AcDbPolyline
 90
        2
 70
     0
 43
0.0
 10
378142.625
 20
-3605.9517
 10
378136.125
 20
-3605.9517
  0
LWPOLYLINE
  5
347
330
1F
100
AcDbEntity
  8
0
  6
Continuous
 62
     7
100
AcDbPolyline
 90
        2
 70
     0
 43
0.0
 10
378129.6875
 20
-3605.9517
 10
378129.1875
 20
-3605.9517
  0
LWPOLYLINE
  5
34B
330
1F
100
AcDbEntity
  8
0
  6
Continuous
 62
     7
100
AcDbPolyline
 90
        2
 70
     0
 43
0.0
 10
378123.4375
 20
-3606.668
 10
378126.25
 20
-3611.5488
  0
LWPOLYLINE
  5
34F
330
1F
100
AcDbEntity
  8
0
  6
Continuous
 62
     7
100
AcDbPolyline
 90
        2
 70
     0
 43
0.0
 10
378129.5
 20
-3617.1494
 10
378132.75
 20
-3622.7502
  0
LWPOLYLINE
  5
353
330
1F
100
AcDbEntity
  8
0
  6
Continuous
 62
     7
100
AcDbPolyline
 90
        2
 70
     0
 43
0.0
 10
378135.9688
 20
-3628.3511
 10
378139.1875
 20
-3633.9517
  0
LWPOLYLINE
  5
357
330
1F
100
AcDbEntity
  8
0
  6
Continuous
 62
     7
100
AcDbPolyline
 90
        2
 70
     0
 43
0.0
 10
378142.4375
 20
-3639.5527
 10
378145.6563
 20
-3645.1533
  0
LWPOLYLINE
  5
35B
330
1F
100
AcDbEntity
  8
0
  6
Continuous
 62
     7
100
AcDbPolyline
 90
        2
 70
     0
 43
0.0
 10
378148.875
 20
-3650.7542
 10
378152.125
 20
-3656.355
  0
LWPOLYLINE
  5
35F
330
1F
100
AcDbEntity
  8
0
  6
Continuous
 62
     7
100
AcDbPolyline
 90
        2
 70
     0
 43
0.0
 10
378155.375
 20
-3661.9558
 10
378158.5938
 20
-3667.5566
  0
LWPOLYLINE
  5
363
330
1F
100
AcDbEntity
  8
0
  6
Continuous
 62
     7
100
AcDbPolyline
 90
        2
 70
     0
 43
0.0
 10
378135.5
 20
-3605.1602
 10
378135.9688
 20
-3605.9492
  0
LWPOLYLINE
  5
367
330
1F
100
AcDbEntity
  8
0
  6
Continuous
 62
     7
100
AcDbPolyline
 90
        2
 70
     0
 43
0.0
 10
378139.1875
 20
-3611.55
 10
378142.4375
 20
-3617.1511
  0
LWPOLYLINE
  5
36B
330
1F
100
AcDbEntity
  8
0
  6
Continuous
 62
     7
100
AcDbPolyline
 90
        2
 70
     0
 43
0.0
 10
378145.6563
 20
-3622.752
 10
378148.875
 20
-3628.353
  0
LWPOLYLINE
  5
36F
330
1F
100
AcDbEntity
  8
0
  6
Continuous
 62
     7
100
AcDbPolyline
 90
        2
 70
     0
 43
0.0
 10
378152.125
 20
-3633.9539
 10
378155.375
 20
-3639.5547
  0
LWPOLYLINE
  5
373
330
1F
100
AcDbEntity
  8
0
  6
Continuous
 62
     7
100
AcDbPolyline
 90
        2
 70
     0
 43
0.0
 10
378158.5938
 20
-3645.1558
 10
378161.8125
 20
-3650.7563
  0
LWPOLYLINE
  5
377
330
1F
100
AcDbEntity
  8
0
  6
Continuous
 62
     7
100
AcDbPolyline
 90
        2
 70
     0
 43
0.0
 10
378165.0625
 20
-3656.3574
 10
378168.3125
 20
-3661.9585
  0
LWPOLYLINE
  5
37B
330
1F
100
AcDbEntity
  8
0
  6
Continuous
 62
     7
100
AcDbPolyline
 90
        2
 70
     0
 43
0.0
 10
378148.875
 20
-3605.9575
 10
378152.125
 20
-3611.5576
  0
LWPOLYLINE
  5
37F
330
1F
100
AcDbEntity
  8
0
  6
Continuous
 62
     7
100
AcDbPolyline
 90
        2
 70
     0
 43
0.0
 10
378155.3438
 20
-3617.158
 10
378158.5625
 20
-3622.7583
  0
LWPOLYLINE
  5
383
330
1F
100
AcDbEntity
  8
0
  6
Continuous
 62
     7
100
AcDbPolyline
 90
        2
 70
     0
 43
0.0
 10
378161.8125
 20
-3628.3584
 10
378165.0625
 20
-3633.9587
  0
LWPOLYLINE
  5
387
330
1F
100
AcDbEntity
  8
0
  6
Continuous
 62
     7
100
AcDbPolyline
 90
        2
 70
     0
 43
0.0
 10
378168.2813
 20
-3639.5591
 10
378171.5
 20
-3645.1592
  0
LWPOLYLINE
  5
38B
330
1F
100
AcDbEntity
  8
0
  6
Continuous
 62
     7
100
AcDbPolyline
 90
        2
 70
     0
 43
0.0
 10
378174.75
 20
-3650.7598
 10
378177.5
 20
-3655.5117
  0
LWPOLYLINE
  5
38F
330
1F
100
AcDbEntity
  8
0
  6
Continuous
 62
     7
100
AcDbPolyline
 90
        2
 70
     0
 43
0.0
 10
378161.1563
 20
-3604.7744
 10
378161.8125
 20
-3605.9507
  0
LWPOLYLINE
  5
393
330
1F
100
AcDbEntity
  8
0
  6
Continuous
 62
     7
100
AcDbPolyline
 90
        2
 70
     0
 43
0.0
 10
378165.0625
 20
-3611.55
 10
378168.3125
 20
-3617.1494
  0
LWPOLYLINE
  5
397
330
1F
100
AcDbEntity
  8
0
  6
Continuous
 62
     7
100
AcDbPolyline
 90
        2
 70
     0
 43
0.0
 10
378171.5313
 20
-3622.749
 10
378174.75
 20
-3628.3481
  0
LWPOLYLINE
  5
39B
330
1F
100
AcDbEntity
  8
0
  6
Continuous
 62
     7
100
AcDbPolyline
 90
        2
 70
     0
 43
0.0
 10
378178.0
 20
-3633.9478
 10
378178.5625
 20
-3634.9133
  0
LWPOLYLINE
  5
39F
330
1F
100
AcDbEntity
  8
0
  6
Continuous
 62
     7
100
AcDbPolyline
 90
        2
 70
     0
 43
0.0
 10
378113.3125
 20
-3611.5544
 10
378116.5625
 20
-3617.1548
  0
LWPOLYLINE
  5
3A3
330
1F
100
AcDbEntity
  8
0
  6
Continuous
 62
     7
100
AcDbPolyline
 90
        2
 70
     0
 43
0.0
 10
378119.8125
 20
-3622.7551
 10
378123.0313
 20
-3628.3555
  0
LWPOLYLINE
  5
3A7
330
1F
100
AcDbEntity
  8
0
  6
Continuous
 62
     7
100
AcDbPolyline
 90
        2
 70
     0
 43
0.0
 10
378126.25
 20
-3633.9556
 10
378129.5
 20
-3639.5559
  0
LWPOLYLINE
  5
3AB
330
1F
100
AcDbEntity
  8
0
  6
Continuous
 62
     7
100
AcDbPolyline
 90
        2
 70
     0
 43
0.0
 10
378132.75
 20
-3645.1563
 10
378135.9688
 20
-3650.7563
  0
LWPOLYLINE
  5
3AF
330
1F
100
AcDbEntity
  8
0
  6
Continuous
 62
     7
100
AcDbPolyline
 90
        2
 70
     0
 43
0.0
 10
378139.1875
 20
-3656.3567
 10
378142.4375
 20
-3661.957
  0
LWPOLYLINE
  5
3B3
330
1F
100
AcDbEntity
  8
0
  6
Continuous
 62
     7
100
AcDbPolyline
 90
        2
 70
     0
 43
0.0
 10
378145.6563
 20
-3667.5574
 10
378148.875
 20
-3673.1577
  0
LWPOLYLINE
  5
3B7
330
1F
100
AcDbEntity
  8
0
  6
Continuous
 62
     7
100
AcDbPolyline
 90
        2
 70
     0
 43
0.0
 10
378104.7813
 20
-3619.1553
 10
378106.875
 20
-3622.7549
  0
LWPOLYLINE
  5
3BB
330
1F
100
AcDbEntity
  8
0
  6
Continuous
 62
     7
100
AcDbPolyline
 90
        2
 70
     0
 43
0.0
 10
378110.0938
 20
-3628.3552
 10
378113.3125
 20
-3633.9556
  0
LWPOLYLINE
  5
3BF
330
1F
100
AcDbEntity
  8
0
  6
Continuous
 62
     7
100
AcDbPolyline
 90
        2
 70
     0
 43
0.0
 10
378116.5625
 20
-3639.5557
 10
378119.8125
 20
-3645.1558
  0
LWPOLYLINE
  5
3C3
330
1F
100
AcDbEntity
  8
0
  6
Continuous
 62
     7
100
AcDbPolyline
 90
        2
 70
     0
 43
0.0
 10
378123.0313
 20
-3650.7559
 10
378126.25
 20
-3656.356
  0
LWPOLYLINE
  5
3C7
330
1F
100
AcDbEntity
  8
0
  6
Continuous
 62
     7
100
AcDbPolyline
 90
        2
 70
     0
 43
0.0
 10
378129.5
 20
-3661.9563
 10
378132.75
 20
-3667.5566
  0
LWPOLYLINE
  5
3CB
330
1F
100
AcDbEntity
  8
0
  6
Continuous
 62
     7
100
AcDbPolyline
 90
        2
 70
     0
 43
0.0
 10
378135.9688
 20
-3673.1567
 10
378137.1875
 20
-3675.3228
  0
LWPOLYLINE
  5
3CF
330
1F
100
AcDbEntity
  8
0
  6
Continuous
 62
     7
100
AcDbPolyline
 90
        2
 70
     0
 43
0.0
 10
378100.375
 20
-3633.9556
 10
378103.625
 20
-3639.5557
  0
LWPOLYLINE
  5
3D3
330
1F
100
AcDbEntity
  8
0
  6
Continuous
 62
     7
100
AcDbPolyline
 90
        2
 70
     0
 43
0.0
 10
378106.875
 20
-3645.1558
 10
378110.0938
 20
-3650.7559
  0
LWPOLYLINE
  5
3D7
330
1F
100
AcDbEntity
  8
0
  6
Continuous
 62
     7
100
AcDbPolyline
 90
        2
 70
     0
 43
0.0
 10
378113.3125
 20
-3656.3557
 10
378116.5625
 20
-3661.9556
  0
LWPOLYLINE
  5
3DB
330
1F
100
AcDbEntity
  8
0
  6
Continuous
 62
     7
100
AcDbPolyline
 90
        2
 70
     0
 43
0.0
 10
378119.8125
 20
-3667.5557
 10
378123.0313
 20
-3673.1558
  0
LWPOLYLINE
  5
3DF
330
1F
100
AcDbEntity
  8
0
  6
Continuous
 62
     7
100
AcDbPolyline
 90
        2
 70
     0
 43
0.0
 10
378097.125
 20
-3650.7603
 10
378100.375
 20
-3656.3594
  0
LWPOLYLINE
  5
3E3
330
1F
100
AcDbEntity
  8
0
  6
Continuous
 62
     7
100
AcDbPolyline
 90
        2
 70
     0
 43
0.0
 10
378103.625
 20
-3661.9585
 10
378104.7188
 20
-3663.8516
  0
LWPOLYLINE
  5
3E7
330
1F
100
AcDbEntity
  8
0
  6
Continuous
 62
     7
100
AcDbPolyline
 90
       10
 70
     0
 43
2.5
 10
378200.0313
 20
-3692.7471
 10
378199.9375
 20
-3693.6106
 10
378199.6875
 20
-3694.4446
 10
378199.2813
 20
-3695.2212
 10
378198.75
 20
-3695.9175
 10
378198.125
 20
-3696.5122
 10
378197.375
 20
-3696.9888
 10
378196.5938
 20
-3697.3279
 10
378195.75
 20
-3697.5256
 10
378195.0313
 20
-3697.5728
  0
LWPOLYLINE
  5
3F3
330
1F
100
AcDbEntity
  8
0
  6
Continuous
 62
     7
100
AcDbPolyline
 90
       10
 70
     0
 43
2.5
 10
378077.5625
 20
-3697.5745
 10
378076.6875
 20
-3697.4966
 10
378075.875
 20
-3697.271
 10
378075.0625
 20
-3696.9026
 10
378074.375
 20
-3696.4023
 10
378073.75
 20
-3695.7861
 10
378073.25
 20
-3695.0718
 10
378072.875
 20
-3694.2817
 10
378072.625
 20
-3693.4395
 10
378072.5625
 20
-3692.7473
  0
LWPOLYLINE
  5
3FF
330
1F
100
AcDbEntity
  8
0
  6
Continuous
 62
     7
100
AcDbPolyline
 90
       38
 70
     0
 43
2.0
 10
378131.75
 20
-3743.7378
 10
378131.875
 20
-3744.2007
 10
378132.0
 20
-3744.6689
 10
378132.0
 20
-3745.1284
 10
378132.0
 20
-3745.5654
 10
378131.875
 20
-3745.9683
 10
378131.75
 20
-3746.3213
 10
378131.5625
 20
-3746.6138
 10
378131.3125
 20
-3746.8403
 10
378131.0313
 20
-3746.9924
 10
378130.7188
 20
-3747.0649
 10
378130.375
 20
-3747.0564
 10
378130.0625
 20
-3746.9663
 10
378129.6875
 20
-3746.7979
 10
378129.375
 20
-3746.5562
 10
378129.0625
 20
-3746.2485
 10
378128.75
 20
-3745.8857
 10
378128.5313
 20
-3745.4758
 10
378128.3125
 20
-3745.0313
 10
378128.1875
 20
-3744.5688
 10
378128.125
 20
-3744.1003
 10
378128.0625
 20
-3743.6409
 10
378128.125
 20
-3743.2039
 10
378128.1875
 20
-3742.8027
 10
378128.3125
 20
-3742.4497
 10
378128.5313
 20
-3742.1553
 10
378128.75
 20
-3741.9287
 10
378129.0625
 20
-3741.7769
 10
378129.375
 20
-3741.7041
 10
378129.6875
 20
-3741.7144
 10
378130.0313
 20
-3741.8044
 10
378130.375
 20
-3741.9712
 10
378130.6875
 20
-3742.2129
 10
378131.0
 20
-3742.5222
 10
378131.3125
 20
-3742.8848
 10
378131.5625
 20
-3743.2949
 10
378131.75
 20
-3743.7378
 10
378131.75
 20
-3743.7378
  0
LWPOLYLINE
  5
427
330
1F
100
AcDbEntity
  8
0
  6
Continuous
 62
     7
100
AcDbPolyline
 90
       38
 70
     0
 43
2.0
 10
378185.6875
 20
-3744.5566
 10
378185.8125
 20
-3744.0854
 10
378186.0
 20
-3743.6411
 10
378186.1875
 20
-3743.2354
 10
378186.4688
 20
-3742.8801
 10
378186.75
 20
-3742.5869
 10
378187.0625
 20
-3742.364
 10
378187.375
 20
-3742.2188
 10
378187.7188
 20
-3742.1553
 10
378188.0313
 20
-3742.1755
 10
378188.3125
 20
-3742.2803
 10
378188.5938
 20
-3742.4639
 10
378188.8438
 20
-3742.7212
 10
378189.0625
 20
-3743.0439
 10
378189.1875
 20
-3743.4265
 10
378189.3125
 20
-3743.8513
 10
378189.375
 20
-3744.3096
 10
378189.3438
 20
-3744.7861
 10
378189.2813
 20
-3745.2666
 10
378189.1563
 20
-3745.7363
 10
378189.0
 20
-3746.1807
 10
378188.75
 20
-3746.5867
 10
378188.5
 20
-3746.9417
 10
378188.2188
 20
-3747.2363
 10
378187.9063
 20
-3747.4592
 10
378187.5625
 20
-3747.6045
 10
378187.25
 20
-3747.6665
 10
378186.9375
 20
-3747.6477
 10
378186.625
 20
-3747.543
 10
378186.375
 20
-3747.3596
 10
378186.125
 20
-3747.1021
 10
378185.9375
 20
-3746.7776
 10
378185.75
 20
-3746.3967
 10
378185.6563
 20
-3745.9722
 10
378185.625
 20
-3745.5122
 10
378185.625
 20
-3745.0356
 10
378185.6875
 20
-3744.5566
 10
378185.6875
 20
-3744.5566
  0
LWPOLYLINE
  5
44F
330
1F
100
AcDbEntity
  8
0
  6
Continuous
 62
     7
100
AcDbPolyline
 90
        2
 70
     0
 43
2.5
 10
377656.5313
 20
-4474.1924
 10
377515.8125
 20
-4474.1924
  0
LWPOLYLINE
  5
453
330
1F
100
AcDbEntity
  8
0
  6
Continuous
 62
     7
100
AcDbPolyline
 90
       61
 70
     0
 43
2.5
 10
377540.625
 20
-4474.4512
 10
377541.3125
 20
-4474.5469
 10
377541.9375
 20
-4474.6406
 10
377542.5625
 20
-4474.7324
 10
377543.25
 20
-4474.8203
 10
377543.875
 20
-4474.9023
 10
377544.5625
 20
-4474.9785
 10
377545.25
 20
-4475.0469
 10
377545.9375
 20
-4475.1064
 10
377546.6563
 20
-4475.1553
 10
377547.4063
 20
-4475.1924
 10
377548.125
 20
-4475.2168
 10
377548.9375
 20
-4475.2275
 10
377549.75
 20
-4475.2241
 10
377550.5625
 20
-4475.2158
 10
377551.4063
 20
-4475.2129
 10
377552.25
 20
-4475.2275
 10
377553.0625
 20
-4475.2705
 10
377553.8125
 20
-4475.3525
 10
377554.5625
 20
-4475.4854
 10
377555.25
 20
-4475.6797
 10
377555.875
 20
-4475.9473
 10
377556.375
 20
-4476.2979
 10
377556.8438
 20
-4476.7441
 10
377557.1875
 20
-4477.2969
 10
377557.3125
 20
-4477.585
 10
377557.4375
 20
-4477.894
 10
377557.5
 20
-4478.2188
 10
377557.5625
 20
-4478.5547
 10
377557.625
 20
-4478.8994
 10
377557.625
 20
-4479.2471
 10
377557.625
 20
-4479.5938
 10
377557.5625
 20
-4479.9365
 10
377557.5
 20
-4480.2705
 10
377557.4375
 20
-4480.5908
 10
377557.3125
 20
-4480.8945
 10
377557.1875
 20
-4481.1768
 10
377556.8438
 20
-4481.7085
 10
377556.375
 20
-4482.1309
 10
377555.875
 20
-4482.4561
 10
377555.25
 20
-4482.6963
 10
377554.5625
 20
-4482.8633
 10
377553.8125
 20
-4482.9692
 10
377553.0625
 20
-4483.0254
 10
377552.25
 20
-4483.0449
 10
377551.4063
 20
-4483.0381
 10
377550.5625
 20
-4483.0186
 10
377549.75
 20
-4482.998
 10
377548.9375
 20
-4482.9873
 10
377548.125
 20
-4482.9971
 10
377547.375
 20
-4483.0264
 10
377546.6563
 20
-4483.0742
 10
377545.9375
 20
-4483.1377
 10
377545.25
 20
-4483.2168
 10
377544.5625
 20
-4483.3081
 10
377543.875
 20
-4483.4102
 10
377543.2188
 20
-4483.5215
 10
377542.5625
 20
-4483.6406
 10
377541.9375
 20
-4483.7646
 10
377541.3125
 20
-4483.8926
 10
377540.625
 20
-4484.022
  0
LWPOLYLINE
  5
492
330
1F
100
AcDbEntity
  8
0
  6
Continuous
 62
     7
100
AcDbPolyline
 90
        2
 70
     0
 43
2.5
 10
377673.0625
 20
-4474.1924
 10
377673.0625
 20
-4474.1924
  0
LWPOLYLINE
  5
496
330
1F
100
AcDbEntity
  8
0
  6
Continuous
 62
     7
100
AcDbPolyline
 90
        2
 70
     0
 43
2.5
 10
377755.875
 20
-4424.5293
 10
377755.875
 20
-4474.1924
  0
LWPOLYLINE
  5
49A
330
1F
100
AcDbEntity
  8
0
  6
Continuous
 62
     7
100
AcDbPolyline
 90
       25
 70
     0
 43
2.5
 10
377731.0313
 20
-4473.6758
 10
377731.375
 20
-4472.9014
 10
377731.7188
 20
-4472.1377
 10
377732.0625
 20
-4471.396
 10
377732.375
 20
-4470.6865
 10
377732.75
 20
-4470.02
 10
377733.0938
 20
-4469.4072
 10
377733.4375
 20
-4468.8594
 10
377733.7813
 20
-4468.3877
 10
377734.125
 20
-4468.001
 10
377734.4688
 20
-4467.7119
 10
377734.8125
 20
-4467.5303
 10
377735.1563
 20
-4467.4678
 10
377735.5
 20
-4467.5303
 10
377735.875
 20
-4467.7119
 10
377736.1875
 20
-4468.001
 10
377736.5313
 20
-4468.3877
 10
377736.875
 20
-4468.8594
 10
377737.25
 20
-4469.4072
 10
377737.5625
 20
-4470.0205
 10
377737.9375
 20
-4470.6865
 10
377738.25
 20
-4471.396
 10
377738.625
 20
-4472.1377
 10
377738.9688
 20
-4472.9014
 10
377739.3125
 20
-4473.6758
  0
LWPOLYLINE
  5
4B5
330
1F
100
AcDbEntity
  8
0
  6
Continuous
 62
     7
100
AcDbPolyline
 90
        2
 70
     0
 43
2.5
 10
377515.8125
 20
-4474.1924
 10
377731.0313
 20
-4474.1924
  0
LWPOLYLINE
  5
4B9
330
1F
100
AcDbEntity
  8
0
  6
Continuous
 62
     7
100
AcDbPolyline
 90
        2
 70
     0
 43
2.5
 10
377739.3125
 20
-4474.1924
 10
377755.875
 20
-4474.1924
  0
LWPOLYLINE
  5
4BD
330
1F
100
AcDbEntity
  8
0
  6
Continuous
 62
     7
100
AcDbPolyline
 90
       61
 70
     0
 43
2.5
 10
377681.375
 20
-4484.2803
 10
377680.375
 20
-4484.2402
 10
377679.375
 20
-4484.1992
 10
377678.375
 20
-4484.1533
 10
377677.375
 20
-4484.1016
 10
377676.375
 20
-4484.042
 10
377675.375
 20
-4483.9727
 10
377674.3125
 20
-4483.8921
 10
377673.2813
 20
-4483.7979
 10
377672.2188
 20
-4483.688
 10
377671.1563
 20
-4483.5605
 10
377670.0625
 20
-4483.4141
 10
377668.9375
 20
-4483.2461
 10
377668.5625
 20
-4483.1787
 10
377668.125
 20
-4483.106
 10
377667.7188
 20
-4483.0244
 10
377667.3125
 20
-4482.9316
 10
377666.9375
 20
-4482.8242
 10
377666.5625
 20
-4482.6992
 10
377666.2188
 20
-4482.5547
 10
377665.875
 20
-4482.3877
 10
377665.5625
 20
-4482.1953
 10
377665.2813
 20
-4481.9736
 10
377665.0313
 20
-4481.7217
 10
377664.8125
 20
-4481.4355
 10
377664.625
 20
-4481.1426
 10
377664.5
 20
-4480.8232
 10
377664.375
 20
-4480.4824
 10
377664.3125
 20
-4480.1265
 10
377664.25
 20
-4479.7588
 10
377664.25
 20
-4479.3857
 10
377664.25
 20
-4479.0117
 10
377664.3125
 20
-4478.6406
 10
377664.4063
 20
-4478.2793
 10
377664.5
 20
-4477.9316
 10
377664.625
 20
-4477.6025
 10
377664.8125
 20
-4477.2969
 10
377665.0313
 20
-4476.9883
 10
377665.2813
 20
-4476.7129
 10
377665.5625
 20
-4476.4678
 10
377665.875
 20
-4476.251
 10
377666.2188
 20
-4476.0605
 10
377666.5625
 20
-4475.8926
 10
377666.9375
 20
-4475.7451
 10
377667.3125
 20
-4475.6162
 10
377667.7188
 20
-4475.502
 10
377668.125
 20
-4475.4014
 10
377668.5625
 20
-4475.3105
 10
377668.9375
 20
-4475.2275
 10
377670.0625
 20
-4475.0313
 10
377671.125
 20
-4474.8687
 10
377672.1875
 20
-4474.7378
 10
377673.25
 20
-4474.6348
 10
377674.25
 20
-4474.5576
 10
377675.3125
 20
-4474.5015
 10
377676.3125
 20
-4474.4648
 10
377677.3125
 20
-4474.4434
 10
377678.375
 20
-4474.4346
 10
377679.375
 20
-4474.4346
 10
377680.375
 20
-4474.4414
 10
377681.375
 20
-4474.4512
  0
LWPOLYLINE
  5
4FC
330
1F
100
AcDbEntity
  8
0
  6
Continuous
 62
     7
100
AcDbPolyline
 90
        2
 70
     0
 43
2.5
 10
377540.625
 20
-4474.1924
 10
377515.8125
 20
-4474.1924
  0
LWPOLYLINE
  5
500
330
1F
100
AcDbEntity
  8
0
  6
Continuous
 62
     7
100
AcDbPolyline
 90
        2
 70
     0
 43
2.5
 10
377548.9375
 20
-4484.2803
 10
377515.8125
 20
-4484.2803
  0
LWPOLYLINE
  5
504
330
1F
100
AcDbEntity
  8
0
  6
Continuous
 62
     7
100
AcDbPolyline
 90
        2
 70
     0
 43
2.5
 10
377706.1875
 20
-4474.1924
 10
377681.375
 20
-4474.1924
  0
LWPOLYLINE
  5
508
330
1F
100
AcDbEntity
  8
0
  6
Continuous
 62
     7
100
AcDbPolyline
 90
        2
 70
     0
 43
2.5
 10
377681.375
 20
-4484.2803
 10
377706.1875
 20
-4484.2803
  0
LWPOLYLINE
  5
50C
330
1F
100
AcDbEntity
  8
0
  6
Continuous
 62
     7
100
AcDbPolyline
 90
        2
 70
     0
 43
0.0
 10
377581.125
 20
-4587.9785
 10
377586.0
 20
-4579.5781
  0
LWPOLYLINE
  5
510
330
1F
100
AcDbEntity
  8
0
  6
Continuous
 62
     7
100
AcDbPolyline
 90
        2
 70
     0
 43
0.0
 10
377590.8125
 20
-4571.1777
 10
377595.6875
 20
-4562.7773
  0
LWPOLYLINE
  5
514
330
1F
100
AcDbEntity
  8
0
  6
Continuous
 62
     7
100
AcDbPolyline
 90
        2
 70
     0
 43
0.0
 10
377600.5313
 20
-4554.377
 10
377605.375
 20
-4545.9766
  0
LWPOLYLINE
  5
518
330
1F
100
AcDbEntity
  8
0
  6
Continuous
 62
     7
100
AcDbPolyline
 90
        2
 70
     0
 43
0.0
 10
377610.25
 20
-4537.5757
 10
377615.0625
 20
-4529.1748
  0
LWPOLYLINE
  5
51C
330
1F
100
AcDbEntity
  8
0
  6
Continuous
 62
     7
100
AcDbPolyline
 90
        2
 70
     0
 43
0.0
 10
377619.9375
 20
-4520.7744
 10
377622.6563
 20
-4516.041
  0
LWPOLYLINE
  5
520
330
1F
100
AcDbEntity
  8
0
  6
Continuous
 62
     7
100
AcDbPolyline
 90
        2
 70
     0
 43
0.0
 10
377568.5938
 20
-4576.0879
 10
377571.4375
 20
-4571.1807
  0
LWPOLYLINE
  5
524
330
1F
100
AcDbEntity
  8
0
  6
Continuous
 62
     7
100
AcDbPolyline
 90
        2
 70
     0
 43
0.0
 10
377576.2813
 20
-4562.7803
 10
377581.125
 20
-4554.3799
  0
LWPOLYLINE
  5
528
330
1F
100
AcDbEntity
  8
0
  6
Continuous
 62
     7
100
AcDbPolyline
 90
        2
 70
     0
 43
0.0
 10
377586.0
 20
-4545.9795
 10
377590.8125
 20
-4537.5791
  0
LWPOLYLINE
  5
52C
330
1F
100
AcDbEntity
  8
0
  6
Continuous
 62
     7
100
AcDbPolyline
 90
        2
 70
     0
 43
0.0
 10
377595.6875
 20
-4529.1787
 10
377600.5313
 20
-4520.7783
  0
LWPOLYLINE
  5
530
330
1F
100
AcDbEntity
  8
0
  6
Continuous
 62
     7
100
AcDbPolyline
 90
        2
 70
     0
 43
0.0
 10
377605.375
 20
-4512.3779
 10
377607.0
 20
-4509.5571
  0
LWPOLYLINE
  5
534
330
1F
100
AcDbEntity
  8
0
  6
Continuous
 62
     7
100
AcDbPolyline
 90
        2
 70
     0
 43
0.0
 10
377561.75
 20
-4554.3789
 10
377566.5625
 20
-4545.9766
  0
LWPOLYLINE
  5
538
330
1F
100
AcDbEntity
  8
0
  6
Continuous
 62
     7
100
AcDbPolyline
 90
        2
 70
     0
 43
0.0
 10
377571.4375
 20
-4537.5747
 10
377576.2813
 20
-4529.1729
  0
LWPOLYLINE
  5
53C
330
1F
100
AcDbEntity
  8
0
  6
Continuous
 62
     7
100
AcDbPolyline
 90
        2
 70
     0
 43
0.0
 10
377581.125
 20
-4520.7705
 10
377585.9688
 20
-4512.3765
  0
LWPOLYLINE
  5
540
330
1F
100
AcDbEntity
  8
0
  6
Continuous
 62
     7
100
AcDbPolyline
 90
        2
 70
     0
 43
0.0
 10
377595.6875
 20
-4596.375
 10
377600.5313
 20
-4587.9746
  0
LWPOLYLINE
  5
544
330
1F
100
AcDbEntity
  8
0
  6
Continuous
 62
     7
100
AcDbPolyline
 90
        2
 70
     0
 43
0.0
 10
377605.375
 20
-4579.5742
 10
377610.25
 20
-4571.1738
  0
LWPOLYLINE
  5
548
330
1F
100
AcDbEntity
  8
0
  6
Continuous
 62
     7
100
AcDbPolyline
 90
        2
 70
     0
 43
0.0
 10
377615.0625
 20
-4562.7734
 10
377619.9375
 20
-4554.373
  0
LWPOLYLINE
  5
54C
330
1F
100
AcDbEntity
  8
0
  6
Continuous
 62
     7
100
AcDbPolyline
 90
        2
 70
     0
 43
0.0
 10
377624.7813
 20
-4545.9731
 10
377629.625
 20
-4537.5728
  0
LWPOLYLINE
  5
550
330
1F
100
AcDbEntity
  8
0
  6
Continuous
 62
     7
100
AcDbPolyline
 90
        2
 70
     0
 43
0.0
 10
377634.5
 20
-4529.1729
 10
377638.3125
 20
-4522.5254
  0
LWPOLYLINE
  5
554
330
1F
100
AcDbEntity
  8
0
  6
Continuous
 62
     7
100
AcDbPolyline
 90
        2
 70
     0
 43
0.0
 10
377612.3125
 20
-4601.1572
 10
377615.0625
 20
-4596.377
  0
LWPOLYLINE
  5
558
330
1F
100
AcDbEntity
  8
0
  6
Continuous
 62
     7
100
AcDbPolyline
 90
        2
 70
     0
 43
0.0
 10
377619.9375
 20
-4587.9766
 10
377624.7813
 20
-4579.5771
  0
LWPOLYLINE
  5
55C
330
1F
100
AcDbEntity
  8
0
  6
Continuous
 62
     7
100
AcDbPolyline
 90
        2
 70
     0
 43
0.0
 10
377629.625
 20
-4571.1777
 10
377634.5
 20
-4562.7783
  0
LWPOLYLINE
  5
560
330
1F
100
AcDbEntity
  8
0
  6
Continuous
 62
     7
100
AcDbPolyline
 90
        2
 70
     0
 43
0.0
 10
377639.3125
 20
-4554.3779
 10
377644.0
 20
-4546.2949
  0
LWPOLYLINE
  5
564
330
1F
100
AcDbEntity
  8
0
  6
Continuous
 62
     7
100
AcDbPolyline
 90
        2
 70
     0
 43
0.0
 10
377634.5
 20
-4596.376
 10
377639.1563
 20
-4588.2803
  0
LWPOLYLINE
  5
568
330
1F
100
AcDbEntity
  8
0
  6
Continuous
 62
     7
100
AcDbPolyline
 90
        2
 70
     0
 43
0.0
 10
377558.4375
 20
-4554.377
 10
377561.4375
 20
-4554.377
  0
LWPOLYLINE
  5
56C
330
1F
100
AcDbEntity
  8
0
  6
Continuous
 62
     7
100
AcDbPolyline
 90
        2
 70
     0
 43
0.0
 10
377571.1563
 20
-4554.377
 10
377580.875
 20
-4554.377
  0
LWPOLYLINE
  5
570
330
1F
100
AcDbEntity
  8
0
  6
Continuous
 62
     7
100
AcDbPolyline
 90
        2
 70
     0
 43
0.0
 10
377590.5625
 20
-4554.377
 10
377600.25
 20
-4554.377
  0
LWPOLYLINE
  5
574
330
1F
100
AcDbEntity
  8
0
  6
Continuous
 62
     7
100
AcDbPolyline
 90
        2
 70
     0
 43
0.0
 10
377609.9375
 20
-4554.377
 10
377619.6563
 20
-4554.377
  0
LWPOLYLINE
  5
578
330
1F
100
AcDbEntity
  8
0
  6
Continuous
 62
     7
100
AcDbPolyline
 90
        2
 70
     0
 43
0.0
 10
377629.375
 20
-4554.377
 10
377639.0625
 20
-4554.377
  0
LWPOLYLINE
  5
57C
330
1F
100
AcDbEntity
  8
0
  6
Continuous
 62
     7
100
AcDbPolyline
 90
        2
 70
     0
 43
0.0
 10
377571.1563
 20
-4537.5767
 10
377580.875
 20
-4537.5767
  0
LWPOLYLINE
  5
580
330
1F
100
AcDbEntity
  8
0
  6
Continuous
 62
     7
100
AcDbPolyline
 90
        2
 70
     0
 43
0.0
 10
377590.5625
 20
-4537.5767
 10
377600.25
 20
-4537.5767
  0
LWPOLYLINE
  5
584
330
1F
100
AcDbEntity
  8
0
  6
Continuous
 62
     7
100
AcDbPolyline
 90
        2
 70
     0
 43
0.0
 10
377609.9375
 20
-4537.5767
 10
377619.6563
 20
-4537.5767
  0
LWPOLYLINE
  5
588
330
1F
100
AcDbEntity
  8
0
  6
Continuous
 62
     7
100
AcDbPolyline
 90
        2
 70
     0
 43
0.0
 10
377629.375
 20
-4537.5767
 10
377639.0625
 20
-4537.5767
  0
LWPOLYLINE
  5
58C
330
1F
100
AcDbEntity
  8
0
  6
Continuous
 62
     7
100
AcDbPolyline
 90
        2
 70
     0
 43
0.0
 10
377574.5
 20
-4520.7764
 10
377580.875
 20
-4520.7764
  0
LWPOLYLINE
  5
590
330
1F
100
AcDbEntity
  8
0
  6
Continuous
 62
     7
100
AcDbPolyline
 90
        2
 70
     0
 43
0.0
 10
377590.5625
 20
-4520.7764
 10
377600.25
 20
-4520.7764
  0
LWPOLYLINE
  5
594
330
1F
100
AcDbEntity
  8
0
  6
Continuous
 62
     7
100
AcDbPolyline
 90
        2
 70
     0
 43
0.0
 10
377609.9375
 20
-4520.7764
 10
377619.6563
 20
-4520.7764
  0
LWPOLYLINE
  5
598
330
1F
100
AcDbEntity
  8
0
  6
Continuous
 62
     7
100
AcDbPolyline
 90
        2
 70
     0
 43
0.0
 10
377629.375
 20
-4520.7764
 10
377634.0938
 20
-4520.7764
  0
LWPOLYLINE
  5
59C
330
1F
100
AcDbEntity
  8
0
  6
Continuous
 62
     7
100
AcDbPolyline
 90
        2
 70
     0
 43
0.0
 10
377571.1563
 20
-4571.1777
 10
377580.875
 20
-4571.1777
  0
LWPOLYLINE
  5
5A0
330
1F
100
AcDbEntity
  8
0
  6
Continuous
 62
     7
100
AcDbPolyline
 90
        2
 70
     0
 43
0.0
 10
377590.5625
 20
-4571.1777
 10
377600.25
 20
-4571.1777
  0
LWPOLYLINE
  5
5A4
330
1F
100
AcDbEntity
  8
0
  6
Continuous
 62
     7
100
AcDbPolyline
 90
        2
 70
     0
 43
0.0
 10
377609.9375
 20
-4571.1777
 10
377619.6563
 20
-4571.1777
  0
LWPOLYLINE
  5
5A8
330
1F
100
AcDbEntity
  8
0
  6
Continuous
 62
     7
100
AcDbPolyline
 90
        2
 70
     0
 43
0.0
 10
377629.375
 20
-4571.1777
 10
377639.0625
 20
-4571.1777
  0
LWPOLYLINE
  5
5AC
330
1F
100
AcDbEntity
  8
0
  6
Continuous
 62
     7
100
AcDbPolyline
 90
        2
 70
     0
 43
0.0
 10
377574.1875
 20
-4587.9775
 10
377580.875
 20
-4587.9775
  0
LWPOLYLINE
  5
5B0
330
1F
100
AcDbEntity
  8
0
  6
Continuous
 62
     7
100
AcDbPolyline
 90
        2
 70
     0
 43
0.0
 10
377590.5625
 20
-4587.9775
 10
377600.25
 20
-4587.9775
  0
LWPOLYLINE
  5
5B4
330
1F
100
AcDbEntity
  8
0
  6
Continuous
 62
     7
100
AcDbPolyline
 90
        2
 70
     0
 43
0.0
 10
377609.9375
 20
-4587.9775
 10
377619.6563
 20
-4587.9775
  0
LWPOLYLINE
  5
5B8
330
1F
100
AcDbEntity
  8
0
  6
Continuous
 62
     7
100
AcDbPolyline
 90
        2
 70
     0
 43
0.0
 10
377629.375
 20
-4587.9775
 10
377639.0625
 20
-4587.9775
  0
LWPOLYLINE
  5
5BC
330
1F
100
AcDbEntity
  8
0
  6
Continuous
 62
     7
100
AcDbPolyline
 90
        2
 70
     0
 43
0.0
 10
377617.8125
 20
-4601.1572
 10
377615.0625
 20
-4596.3828
  0
LWPOLYLINE
  5
5C0
330
1F
100
AcDbEntity
  8
0
  6
Continuous
 62
     7
100
AcDbPolyline
 90
        2
 70
     0
 43
0.0
 10
377610.25
 20
-4587.9824
 10
377605.375
 20
-4579.582
  0
LWPOLYLINE
  5
5C4
330
1F
100
AcDbEntity
  8
0
  6
Continuous
 62
     7
100
AcDbPolyline
 90
        2
 70
     0
 43
0.0
 10
377600.5313
 20
-4571.1807
 10
377595.6875
 20
-4562.7803
  0
LWPOLYLINE
  5
5C8
330
1F
100
AcDbEntity
  8
0
  6
Continuous
 62
     7
100
AcDbPolyline
 90
        2
 70
     0
 43
0.0
 10
377590.8125
 20
-4554.3789
 10
377586.0
 20
-4545.9785
  0
LWPOLYLINE
  5
5CC
330
1F
100
AcDbEntity
  8
0
  6
Continuous
 62
     7
100
AcDbPolyline
 90
        2
 70
     0
 43
0.0
 10
377581.125
 20
-4537.5776
 10
377576.2813
 20
-4529.1768
  0
LWPOLYLINE
  5
5D0
330
1F
100
AcDbEntity
  8
0
  6
Continuous
 62
     7
100
AcDbPolyline
 90
        2
 70
     0
 43
0.0
 10
377595.6875
 20
-4596.3809
 10
377590.8125
 20
-4587.9805
  0
LWPOLYLINE
  5
5D4
330
1F
100
AcDbEntity
  8
0
  6
Continuous
 62
     7
100
AcDbPolyline
 90
        2
 70
     0
 43
0.0
 10
377586.0
 20
-4579.5791
 10
377581.125
 20
-4571.1777
  0
LWPOLYLINE
  5
5D8
330
1F
100
AcDbEntity
  8
0
  6
Continuous
 62
     7
100
AcDbPolyline
 90
        2
 70
     0
 43
0.0
 10
377576.2813
 20
-4562.7773
 10
377571.4375
 20
-4554.376
  0
LWPOLYLINE
  5
5DC
330
1F
100
AcDbEntity
  8
0
  6
Continuous
 62
     7
100
AcDbPolyline
 90
        2
 70
     0
 43
0.0
 10
377566.5625
 20
-4545.9746
 10
377563.375
 20
-4540.3984
  0
LWPOLYLINE
  5
5E0
330
1F
100
AcDbEntity
  8
0
  6
Continuous
 62
     7
100
AcDbPolyline
 90
        2
 70
     0
 43
0.0
 10
377634.5
 20
-4596.377
 10
377629.625
 20
-4587.9756
  0
LWPOLYLINE
  5
5E4
330
1F
100
AcDbEntity
  8
0
  6
Continuous
 62
     7
100
AcDbPolyline
 90
        2
 70
     0
 43
0.0
 10
377624.7813
 20
-4579.5752
 10
377619.9375
 20
-4571.1738
  0
LWPOLYLINE
  5
5E8
330
1F
100
AcDbEntity
  8
0
  6
Continuous
 62
     7
100
AcDbPolyline
 90
        2
 70
     0
 43
0.0
 10
377615.0625
 20
-4562.7734
 10
377610.25
 20
-4554.3721
  0
LWPOLYLINE
  5
5EC
330
1F
100
AcDbEntity
  8
0
  6
Continuous
 62
     7
100
AcDbPolyline
 90
        2
 70
     0
 43
0.0
 10
377605.375
 20
-4545.9717
 10
377600.5313
 20
-4537.5703
  0
LWPOLYLINE
  5
5F0
330
1F
100
AcDbEntity
  8
0
  6
Continuous
 62
     7
100
AcDbPolyline
 90
        2
 70
     0
 43
0.0
 10
377595.6875
 20
-4529.1699
 10
377590.8125
 20
-4520.7686
  0
LWPOLYLINE
  5
5F4
330
1F
100
AcDbEntity
  8
0
  6
Continuous
 62
     7
100
AcDbPolyline
 90
        2
 70
     0
 43
0.0
 10
377639.3125
 20
-4571.1826
 10
377634.5
 20
-4562.7808
  0
LWPOLYLINE
  5
5F8
330
1F
100
AcDbEntity
  8
0
  6
Continuous
 62
     7
100
AcDbPolyline
 90
        2
 70
     0
 43
0.0
 10
377629.625
 20
-4554.3789
 10
377624.7813
 20
-4545.9766
  0
LWPOLYLINE
  5
5FC
330
1F
100
AcDbEntity
  8
0
  6
Continuous
 62
     7
100
AcDbPolyline
 90
        2
 70
     0
 43
0.0
 10
377619.9375
 20
-4537.5752
 10
377615.0625
 20
-4529.1729
  0
LWPOLYLINE
  5
600
330
1F
100
AcDbEntity
  8
0
  6
Continuous
 62
     7
100
AcDbPolyline
 90
        2
 70
     0
 43
0.0
 10
377610.25
 20
-4520.7715
 10
377605.375
 20
-4512.3691
  0
LWPOLYLINE
  5
604
330
1F
100
AcDbEntity
  8
0
  6
Continuous
 62
     7
100
AcDbPolyline
 90
        2
 70
     0
 43
0.0
 10
377644.0
 20
-4545.6738
 10
377639.3125
 20
-4537.5781
  0
LWPOLYLINE
  5
608
330
1F
100
AcDbEntity
  8
0
  6
Continuous
 62
     7
100
AcDbPolyline
 90
        2
 70
     0
 43
0.0
 10
377634.5
 20
-4529.1777
 10
377629.625
 20
-4520.7773
  0
LWPOLYLINE
  5
60C
330
1F
100
AcDbEntity
  8
0
  6
Continuous
 62
     7
100
AcDbPolyline
 90
       38
 70
     0
 43
2.0
 10
377578.1875
 20
-4365.4893
 10
377578.3125
 20
-4365.9521
 10
377578.4063
 20
-4366.4204
 10
377578.4375
 20
-4366.8799
 10
377578.4063
 20
-4367.3174
 10
377578.3125
 20
-4367.7173
 10
377578.1875
 20
-4368.0703
 10
377577.9688
 20
-4368.3652
 10
377577.75
 20
-4368.5918
 10
377577.4375
 20
-4368.7441
 10
377577.1563
 20
-4368.8169
 10
377576.8125
 20
-4368.8081
 10
377576.4688
 20
-4368.7178
 10
377576.125
 20
-4368.5498
 10
377575.8125
 20
-4368.3076
 10
377575.5
 20
-4368.0
 10
377575.1875
 20
-4367.6348
 10
377574.9375
 20
-4367.2251
 10
377574.75
 20
-4366.7832
 10
377574.625
 20
-4366.3203
 10
377574.5313
 20
-4365.8521
 10
377574.5
 20
-4365.3926
 10
377574.5313
 20
-4364.9556
 10
377574.625
 20
-4364.5547
 10
377574.75
 20
-4364.2012
 10
377574.9375
 20
-4363.9072
 10
377575.1875
 20
-4363.6807
 10
377575.5
 20
-4363.5283
 10
377575.8125
 20
-4363.4561
 10
377576.125
 20
-4363.4634
 10
377576.4375
 20
-4363.5537
 10
377576.8125
 20
-4363.7227
 10
377577.125
 20
-4363.9648
 10
377577.4375
 20
-4364.2715
 10
377577.75
 20
-4364.6367
 10
377577.9688
 20
-4365.0469
 10
377578.1875
 20
-4365.4893
 10
377578.1875
 20
-4365.4893
  0
LWPOLYLINE
  5
634
330
1F
100
AcDbEntity
  8
0
  6
Continuous
 62
     7
100
AcDbPolyline
 90
       38
 70
     0
 43
2.0
 10
377630.125
 20
-4395.3066
 10
377630.25
 20
-4394.8369
 10
377630.4375
 20
-4394.3926
 10
377630.625
 20
-4393.9858
 10
377630.875
 20
-4393.6318
 10
377631.1875
 20
-4393.3384
 10
377631.5
 20
-4393.1157
 10
377631.8125
 20
-4392.9707
 10
377632.125
 20
-4392.9072
 10
377632.4375
 20
-4392.9272
 10
377632.75
 20
-4393.0303
 10
377633.0313
 20
-4393.2139
 10
377633.2813
 20
-4393.4717
 10
377633.4688
 20
-4393.7959
 10
377633.625
 20
-4394.1768
 10
377633.75
 20
-4394.603
 10
377633.7813
 20
-4395.0615
 10
377633.75
 20
-4395.5381
 10
377633.6875
 20
-4396.0186
 10
377633.5625
 20
-4396.4868
 10
377633.4063
 20
-4396.9321
 10
377633.1875
 20
-4397.3369
 10
377632.9375
 20
-4397.6924
 10
377632.6563
 20
-4397.9863
 10
377632.3438
 20
-4398.2095
 10
377632.0
 20
-4398.3545
 10
377631.6875
 20
-4398.417
 10
377631.375
 20
-4398.3979
 10
377631.0625
 20
-4398.2944
 10
377630.8125
 20
-4398.1113
 10
377630.5625
 20
-4397.8535
 10
377630.3438
 20
-4397.5283
 10
377630.1875
 20
-4397.1484
 10
377630.0938
 20
-4396.7222
 10
377630.0625
 20
-4396.2637
 10
377630.0625
 20
-4395.7861
 10
377630.125
 20
-4395.3066
 10
377630.125
 20
-4395.3066
  0
LWPOLYLINE
  5
65C
330
1F
100
AcDbEntity
  8
0
  6
Continuous
 62
     7
100
AcDbPolyline
 90
        2
 70
     0
 43
2.5
 10
377668.0
 20
-4616.1572
 10
377672.0938
 20
-4486.2822
  0
LWPOLYLINE
  5
660
330
1F
100
AcDbEntity
  8
0
  6
Continuous
 62
     7
100
AcDbPolyline
 90
        2
 70
     0
 43
2.5
 10
377515.0
 20
-4374.1558
 10
377515.0
 20
-4616.1553
  0
LWPOLYLINE
  5
664
330
1F
100
AcDbEntity
  8
0
  6
Continuous
 62
     7
100
AcDbPolyline
 90
        2
 70
     0
 43
2.5
 10
377705.0
 20
-4616.1572
 10
377705.0
 20
-4474.1943
  0
LWPOLYLINE
  5
668
330
1F
100
AcDbEntity
  8
0
  6
Continuous
 62
     7
100
AcDbPolyline
 90
        2
 70
     0
 43
2.5
 10
377549.0313
 20
-4616.1572
 10
377544.75
 20
-4484.2822
  0
LWPOLYLINE
  5
66C
330
1F
100
AcDbEntity
  8
0
  6
Continuous
 62
     7
100
AcDbPolyline
 90
        2
 70
     0
 43
2.5
 10
377569.0625
 20
-4374.3496
 10
377515.8125
 20
-4374.3486
  0
LWPOLYLINE
  5
670
330
1F
100
AcDbEntity
  8
0
  6
Continuous
 62
     7
100
AcDbPolyline
 90
        2
 70
     0
 43
2.5
 10
377569.0625
 20
-4374.3496
 10
377569.0625
 20
-4404.3545
  0
LWPOLYLINE
  5
674
330
1F
100
AcDbEntity
  8
0
  6
Continuous
 62
     7
100
AcDbPolyline
 90
        2
 70
     0
 43
2.5
 10
377569.0625
 20
-4404.3545
 10
377631.6875
 20
-4404.3545
  0
LWPOLYLINE
  5
678
330
1F
100
AcDbEntity
  8
0
  6
Continuous
 62
     7
100
AcDbPolyline
 90
        2
 70
     0
 43
2.5
 10
377631.6875
 20
-4404.3545
 10
377755.875
 20
-4424.5293
  0
LWPOLYLINE
  5
67C
330
1F
100
AcDbEntity
  8
0
  6
Continuous
 62
     7
100
AcDbPolyline
 90
        2
 70
     0
 43
2.5
 10
378169.9063
 20
-5073.1582
 10
378169.9063
 20
-5263.1587
  0
ARC
  5
680
330
1F
100
AcDbEntity
  8
0
  6
Continuous
 62
     7
100
AcDbCircle
 10
378204.9063
 20
-5228.1587
 30
0.0
 40
4.9688
100
AcDbArc
 50
180.0
 51
270.0
  0
LWPOLYLINE
  5
681
330
1F
100
AcDbEntity
  8
0
  6
Continuous
 62
     7
100
AcDbPolyline
 90
        2
 70
     0
 43
2.5
 10
378199.9375
 20
-5228.1587
 10
378199.9375
 20
-5108.1582
  0
ARC
  5
685
330
1F
100
AcDbEntity
  8
0
  6
Continuous
 62
     7
100
AcDbCircle
 10
378204.9063
 20
-5108.1582
 30
0.0
 40
5.0
100
AcDbArc
 50
90.0
 51
180.0
  0
LWPOLYLINE
  5
686
330
1F
100
AcDbEntity
  8
0
  6
Continuous
 62
     7
100
AcDbPolyline
 90
        2
 70
     0
 43
2.5
 10
378344.9375
 20
-5103.1582
 10
378204.9063
 20
-5103.1582
  0
LWPOLYLINE
  5
68A
330
1F
100
AcDbEntity
  8
0
  6
Continuous
 62
     7
100
AcDbPolyline
 90
        2
 70
     0
 43
2.5
 10
378344.9375
 20
-5233.1587
 10
378204.9063
 20
-5233.1587
  0
LWPOLYLINE
  5
68E
330
1F
100
AcDbEntity
  8
0
  6
Continuous
 62
     7
100
AcDbPolyline
 90
        2
 70
     0
 43
2.5
 10
378346.0
 20
-5073.1582
 10
378169.9063
 20
-5073.1582
  0
ARC
  5
692
330
1F
100
AcDbEntity
  8
0
  6
Continuous
 62
     7
100
AcDbCircle
 10
378344.9375
 20
-5108.1582
 30
0.0
 40
4.9971
100
AcDbArc
 50
77.7238
 51
90.0
  0
ARC
  5
693
330
1F
100
AcDbEntity
  8
0
  6
Continuous
 62
     7
100
AcDbCircle
 10
378344.9375
 20
-5228.1587
 30
0.0
 40
5.0
100
AcDbArc
 50
270.0
 51
282.2691
  0
LWPOLYLINE
  5
694
330
1F
100
AcDbEntity
  8
0
  6
Continuous
 62
     7
100
AcDbPolyline
 90
        2
 70
     0
 43
0.0
 10
378168.5
 20
-5170.1567
 10
378167.875
 20
-5170.1567
  0
LWPOLYLINE
  5
698
330
1F
100
AcDbEntity
  8
0
  6
Continuous
 62
     7
100
AcDbPolyline
 90
        2
 70
     0
 43
0.0
 10
378165.4375
 20
-5173.2451
 10
378164.8125
 20
-5173.2451
  0
LWPOLYLINE
  5
69C
330
1F
100
AcDbEntity
  8
0
  6
Continuous
 62
     7
100
AcDbPolyline
 90
        2
 70
     0
 43
0.0
 10
378168.5
 20
-5176.333
 10
378167.9063
 20
-5176.333
  0
LWPOLYLINE
  5
6A0
330
1F
100
AcDbEntity
  8
0
  6
Continuous
 62
     7
100
AcDbPolyline
 90
        2
 70
     0
 43
0.0
 10
378165.4375
 20
-5179.4209
 10
378164.8125
 20
-5179.4209
  0
LWPOLYLINE
  5
6A4
330
1F
100
AcDbEntity
  8
0
  6
Continuous
 62
     7
100
AcDbPolyline
 90
        2
 70
     0
 43
0.0
 10
378168.5
 20
-5182.5088
 10
378167.9063
 20
-5182.5088
  0
LWPOLYLINE
  5
6A8
330
1F
100
AcDbEntity
  8
0
  6
Continuous
 62
     7
100
AcDbPolyline
 90
        2
 70
     0
 43
0.0
 10
378165.4375
 20
-5185.5967
 10
378164.8125
 20
-5185.5967
  0
LWPOLYLINE
  5
6AC
330
1F
100
AcDbEntity
  8
0
  6
Continuous
 62
     7
100
AcDbPolyline
 90
        2
 70
     0
 43
0.0
 10
378168.5
 20
-5188.6851
 10
378167.9063
 20
-5188.6851
  0
LWPOLYLINE
  5
6B0
330
1F
100
AcDbEntity
  8
0
  6
Continuous
 62
     7
100
AcDbPolyline
 90
        2
 70
     0
 43
0.0
 10
378165.4375
 20
-5191.7734
 10
378164.8125
 20
-5191.7734
  0
LWPOLYLINE
  5
6B4
330
1F
100
AcDbEntity
  8
0
  6
Continuous
 62
     7
100
AcDbPolyline
 90
        2
 70
     0
 43
0.0
 10
378168.5
 20
-5194.8613
 10
378167.9063
 20
-5194.8613
  0
LWPOLYLINE
  5
6B8
330
1F
100
AcDbEntity
  8
0
  6
Continuous
 62
     7
100
AcDbPolyline
 90
        2
 70
     0
 43
0.0
 10
378165.4375
 20
-5197.9492
 10
378164.8125
 20
-5197.9492
  0
LWPOLYLINE
  5
6BC
330
1F
100
AcDbEntity
  8
0
  6
Continuous
 62
     7
100
AcDbPolyline
 90
        2
 70
     0
 43
0.0
 10
378168.5
 20
-5201.0371
 10
378167.9063
 20
-5201.0371
  0
LWPOLYLINE
  5
6C0
330
1F
100
AcDbEntity
  8
0
  6
Continuous
 62
     7
100
AcDbPolyline
 90
        2
 70
     0
 43
0.0
 10
378165.4375
 20
-5204.125
 10
378164.8125
 20
-5204.125
  0
LWPOLYLINE
  5
6C4
330
1F
100
AcDbEntity
  8
0
  6
Continuous
 62
     7
100
AcDbPolyline
 90
        2
 70
     0
 43
0.0
 10
378168.5
 20
-5207.2129
 10
378167.9063
 20
-5207.2129
  0
LWPOLYLINE
  5
6C8
330
1F
100
AcDbEntity
  8
0
  6
Continuous
 62
     7
100
AcDbPolyline
 90
        2
 70
     0
 43
0.0
 10
378165.4375
 20
-5210.3013
 10
378164.8125
 20
-5210.3013
  0
LWPOLYLINE
  5
6CC
330
1F
100
AcDbEntity
  8
0
  6
Continuous
 62
     7
100
AcDbPolyline
 90
        2
 70
     0
 43
0.0
 10
378168.5
 20
-5213.3896
 10
378167.9063
 20
-5213.3896
  0
LWPOLYLINE
  5
6D0
330
1F
100
AcDbEntity
  8
0
  6
Continuous
 62
     7
100
AcDbPolyline
 90
        2
 70
     0
 43
0.0
 10
378165.4375
 20
-5216.4775
 10
378164.8125
 20
-5216.4775
  0
LWPOLYLINE
  5
6D4
330
1F
100
AcDbEntity
  8
0
  6
Continuous
 62
     7
100
AcDbPolyline
 90
        2
 70
     0
 43
0.0
 10
378168.5
 20
-5219.5654
 10
378167.9063
 20
-5219.5654
  0
LWPOLYLINE
  5
6D8
330
1F
100
AcDbEntity
  8
0
  6
Continuous
 62
     7
100
AcDbPolyline
 90
        2
 70
     0
 43
0.0
 10
378165.4375
 20
-5222.6533
 10
378164.8125
 20
-5222.6533
  0
LWPOLYLINE
  5
6DC
330
1F
100
AcDbEntity
  8
0
  6
Continuous
 62
     7
100
AcDbPolyline
 90
        2
 70
     0
 43
0.0
 10
378168.5
 20
-5225.7422
 10
378167.9063
 20
-5225.7422
  0
LWPOLYLINE
  5
6E0
330
1F
100
AcDbEntity
  8
0
  6
Continuous
 62
     7
100
AcDbPolyline
 90
        2
 70
     0
 43
0.0
 10
378165.4375
 20
-5228.8301
 10
378164.8125
 20
-5228.8301
  0
LWPOLYLINE
  5
6E4
330
1F
100
AcDbEntity
  8
0
  6
Continuous
 62
     7
100
AcDbPolyline
 90
        2
 70
     0
 43
0.0
 10
378168.5
 20
-5231.918
 10
378167.9063
 20
-5231.918
  0
LWPOLYLINE
  5
6E8
330
1F
100
AcDbEntity
  8
0
  6
Continuous
 62
     7
100
AcDbPolyline
 90
        2
 70
     0
 43
0.0
 10
378165.4375
 20
-5235.0059
 10
378164.8125
 20
-5235.0059
  0
LWPOLYLINE
  5
6EC
330
1F
100
AcDbEntity
  8
0
  6
Continuous
 62
     7
100
AcDbPolyline
 90
        2
 70
     0
 43
0.0
 10
378168.5
 20
-5238.0938
 10
378167.9063
 20
-5238.0938
  0
LWPOLYLINE
  5
6F0
330
1F
100
AcDbEntity
  8
0
  6
Continuous
 62
     7
100
AcDbPolyline
 90
        2
 70
     0
 43
0.0
 10
378165.4375
 20
-5241.1821
 10
378164.8125
 20
-5241.1821
  0
LWPOLYLINE
  5
6F4
330
1F
100
AcDbEntity
  8
0
  6
Continuous
 62
     7
100
AcDbPolyline
 90
        2
 70
     0
 43
0.0
 10
378168.5
 20
-5244.2705
 10
378167.9063
 20
-5244.2705
  0
LWPOLYLINE
  5
6F8
330
1F
100
AcDbEntity
  8
0
  6
Continuous
 62
     7
100
AcDbPolyline
 90
        2
 70
     0
 43
0.0
 10
378165.4375
 20
-5247.3584
 10
378164.8125
 20
-5247.3584
  0
LWPOLYLINE
  5
6FC
330
1F
100
AcDbEntity
  8
0
  6
Continuous
 62
     7
100
AcDbPolyline
 90
        2
 70
     0
 43
0.0
 10
378168.5
 20
-5250.4463
 10
378167.9063
 20
-5250.4463
  0
LWPOLYLINE
  5
700
330
1F
100
AcDbEntity
  8
0
  6
Continuous
 62
     7
100
AcDbPolyline
 90
        2
 70
     0
 43
0.0
 10
378165.4375
 20
-5253.5342
 10
378164.8125
 20
-5253.5342
  0
LWPOLYLINE
  5
704
330
1F
100
AcDbEntity
  8
0
  6
Continuous
 62
     7
100
AcDbPolyline
 90
        2
 70
     0
 43
0.0
 10
378168.5
 20
-5256.6221
 10
378167.9063
 20
-5256.6221
  0
LWPOLYLINE
  5
708
330
1F
100
AcDbEntity
  8
0
  6
Continuous
 62
     7
100
AcDbPolyline
 90
        2
 70
     0
 43
0.0
 10
378165.4375
 20
-5259.71
 10
378164.8125
 20
-5259.71
  0
LWPOLYLINE
  5
70C
330
1F
100
AcDbEntity
  8
0
  6
Continuous
 62
     7
100
AcDbPolyline
 90
        2
 70
     0
 43
0.0
 10
378168.5
 20
-5262.7983
 10
378167.9063
 20
-5262.7983
  0
LWPOLYLINE
  5
710
330
1F
100
AcDbEntity
  8
0
  6
Continuous
 62
     7
100
AcDbPolyline
 90
        2
 70
     0
 43
0.0
 10
378344.5625
 20
-5265.8867
 10
378343.9375
 20
-5265.8867
  0
LWPOLYLINE
  5
714
330
1F
100
AcDbEntity
  8
0
  6
Continuous
 62
     7
100
AcDbPolyline
 90
        2
 70
     0
 43
0.0
 10
378338.375
 20
-5265.8867
 10
378337.75
 20
-5265.8867
  0
LWPOLYLINE
  5
718
330
1F
100
AcDbEntity
  8
0
  6
Continuous
 62
     7
100
AcDbPolyline
 90
        2
 70
     0
 43
0.0
 10
378332.1875
 20
-5265.8867
 10
378331.5625
 20
-5265.8867
  0
LWPOLYLINE
  5
71C
330
1F
100
AcDbEntity
  8
0
  6
Continuous
 62
     7
100
AcDbPolyline
 90
        2
 70
     0
 43
0.0
 10
378326.0
 20
-5265.8867
 10
378325.4063
 20
-5265.8867
  0
LWPOLYLINE
  5
720
330
1F
100
AcDbEntity
  8
0
  6
Continuous
 62
     7
100
AcDbPolyline
 90
        2
 70
     0
 43
0.0
 10
378319.8438
 20
-5265.8867
 10
378319.25
 20
-5265.8867
  0
LWPOLYLINE
  5
724
330
1F
100
AcDbEntity
  8
0
  6
Continuous
 62
     7
100
AcDbPolyline
 90
        2
 70
     0
 43
0.0
 10
378313.6875
 20
-5265.8867
 10
378313.0625
 20
-5265.8867
  0
LWPOLYLINE
  5
728
330
1F
100
AcDbEntity
  8
0
  6
Continuous
 62
     7
100
AcDbPolyline
 90
        2
 70
     0
 43
0.0
 10
378307.5
 20
-5265.8867
 10
378306.875
 20
-5265.8867
  0
LWPOLYLINE
  5
72C
330
1F
100
AcDbEntity
  8
0
  6
Continuous
 62
     7
100
AcDbPolyline
 90
        2
 70
     0
 43
0.0
 10
378301.3125
 20
-5265.8867
 10
378300.6875
 20
-5265.8867
  0
LWPOLYLINE
  5
730
330
1F
100
AcDbEntity
  8
0
  6
Continuous
 62
     7
100
AcDbPolyline
 90
        2
 70
     0
 43
0.0
 10
378295.125
 20
-5265.8867
 10
378294.5313
 20
-5265.8867
  0
LWPOLYLINE
  5
734
330
1F
100
AcDbEntity
  8
0
  6
Continuous
 62
     7
100
AcDbPolyline
 90
        2
 70
     0
 43
0.0
 10
378288.9688
 20
-5265.8867
 10
378288.3438
 20
-5265.8867
  0
LWPOLYLINE
  5
738
330
1F
100
AcDbEntity
  8
0
  6
Continuous
 62
     7
100
AcDbPolyline
 90
        2
 70
     0
 43
0.0
 10
378282.7813
 20
-5265.8867
 10
378282.1875
 20
-5265.8867
  0
LWPOLYLINE
  5
73C
330
1F
100
AcDbEntity
  8
0
  6
Continuous
 62
     7
100
AcDbPolyline
 90
        2
 70
     0
 43
0.0
 10
378276.625
 20
-5265.8867
 10
378276.0
 20
-5265.8867
  0
LWPOLYLINE
  5
740
330
1F
100
AcDbEntity
  8
0
  6
Continuous
 62
     7
100
AcDbPolyline
 90
        2
 70
     0
 43
0.0
 10
378270.4375
 20
-5265.8867
 10
378269.8125
 20
-5265.8867
  0
LWPOLYLINE
  5
744
330
1F
100
AcDbEntity
  8
0
  6
Continuous
 62
     7
100
AcDbPolyline
 90
        2
 70
     0
 43
0.0
 10
378264.25
 20
-5265.8867
 10
378263.625
 20
-5265.8867
  0
LWPOLYLINE
  5
748
330
1F
100
AcDbEntity
  8
0
  6
Continuous
 62
     7
100
AcDbPolyline
 90
        2
 70
     0
 43
0.0
 10
378258.0625
 20
-5265.8867
 10
378257.4688
 20
-5265.8867
  0
LWPOLYLINE
  5
74C
330
1F
100
AcDbEntity
  8
0
  6
Continuous
 62
     7
100
AcDbPolyline
 90
        2
 70
     0
 43
0.0
 10
378251.9063
 20
-5265.8867
 10
378251.3125
 20
-5265.8867
  0
LWPOLYLINE
  5
750
330
1F
100
AcDbEntity
  8
0
  6
Continuous
 62
     7
100
AcDbPolyline
 90
        2
 70
     0
 43
0.0
 10
378245.75
 20
-5265.8867
 10
378245.125
 20
-5265.8867
  0
LWPOLYLINE
  5
754
330
1F
100
AcDbEntity
  8
0
  6
Continuous
 62
     7
100
AcDbPolyline
 90
        2
 70
     0
 43
0.0
 10
378239.5625
 20
-5265.8867
 10
378238.9375
 20
-5265.8867
  0
LWPOLYLINE
  5
758
330
1F
100
AcDbEntity
  8
0
  6
Continuous
 62
     7
100
AcDbPolyline
 90
        2
 70
     0
 43
0.0
 10
378233.375
 20
-5265.8867
 10
378232.75
 20
-5265.8867
  0
LWPOLYLINE
  5
75C
330
1F
100
AcDbEntity
  8
0
  6
Continuous
 62
     7
100
AcDbPolyline
 90
        2
 70
     0
 43
0.0
 10
378227.1875
 20
-5265.8867
 10
378226.5938
 20
-5265.8867
  0
LWPOLYLINE
  5
760
330
1F
100
AcDbEntity
  8
0
  6
Continuous
 62
     7
100
AcDbPolyline
 90
        2
 70
     0
 43
0.0
 10
378221.0313
 20
-5265.8867
 10
378220.4375
 20
-5265.8867
  0
LWPOLYLINE
  5
764
330
1F
100
AcDbEntity
  8
0
  6
Continuous
 62
     7
100
AcDbPolyline
 90
        2
 70
     0
 43
0.0
 10
378214.875
 20
-5265.8867
 10
378214.25
 20
-5265.8867
  0
LWPOLYLINE
  5
768
330
1F
100
AcDbEntity
  8
0
  6
Continuous
 62
     7
100
AcDbPolyline
 90
        2
 70
     0
 43
0.0
 10
378208.6875
 20
-5265.8867
 10
378208.0625
 20
-5265.8867
  0
LWPOLYLINE
  5
76C
330
1F
100
AcDbEntity
  8
0
  6
Continuous
 62
     7
100
AcDbPolyline
 90
        2
 70
     0
 43
0.0
 10
378202.5
 20
-5265.8867
 10
378201.875
 20
-5265.8867
  0
LWPOLYLINE
  5
770
330
1F
100
AcDbEntity
  8
0
  6
Continuous
 62
     7
100
AcDbPolyline
 90
        2
 70
     0
 43
0.0
 10
378196.3125
 20
-5265.8867
 10
378195.7188
 20
-5265.8867
  0
LWPOLYLINE
  5
774
330
1F
100
AcDbEntity
  8
0
  6
Continuous
 62
     7
100
AcDbPolyline
 90
        2
 70
     0
 43
0.0
 10
378190.1563
 20
-5265.8867
 10
378189.5313
 20
-5265.8867
  0
LWPOLYLINE
  5
778
330
1F
100
AcDbEntity
  8
0
  6
Continuous
 62
     7
100
AcDbPolyline
 90
        2
 70
     0
 43
0.0
 10
378184.0
 20
-5265.8867
 10
378183.375
 20
-5265.8867
  0
LWPOLYLINE
  5
77C
330
1F
100
AcDbEntity
  8
0
  6
Continuous
 62
     7
100
AcDbPolyline
 90
        2
 70
     0
 43
0.0
 10
378177.8125
 20
-5265.8867
 10
378177.1875
 20
-5265.8867
  0
LWPOLYLINE
  5
780
330
1F
100
AcDbEntity
  8
0
  6
Continuous
 62
     7
100
AcDbPolyline
 90
        2
 70
     0
 43
0.0
 10
378171.625
 20
-5265.8867
 10
378171.0
 20
-5265.8867
  0
LWPOLYLINE
  5
784
330
1F
100
AcDbEntity
  8
0
  6
Continuous
 62
     7
100
AcDbPolyline
 90
        2
 70
     0
 43
0.0
 10
378165.4375
 20
-5265.8867
 10
378164.8438
 20
-5265.8867
  0
LWPOLYLINE
  5
788
330
1F
100
AcDbEntity
  8
0
  6
Continuous
 62
     7
100
AcDbPolyline
 90
        2
 70
     0
 43
0.0
 10
378165.4375
 20
-5167.0684
 10
378164.8125
 20
-5167.0684
  0
LWPOLYLINE
  5
78C
330
1F
100
AcDbEntity
  8
0
  6
Continuous
 62
     7
100
AcDbPolyline
 90
        2
 70
     0
 43
0.0
 10
378168.5
 20
-5163.9805
 10
378167.875
 20
-5163.9805
  0
LWPOLYLINE
  5
790
330
1F
100
AcDbEntity
  8
0
  6
Continuous
 62
     7
100
AcDbPolyline
 90
        2
 70
     0
 43
0.0
 10
378165.4375
 20
-5160.8926
 10
378164.8125
 20
-5160.8926
  0
LWPOLYLINE
  5
794
330
1F
100
AcDbEntity
  8
0
  6
Continuous
 62
     7
100
AcDbPolyline
 90
        2
 70
     0
 43
0.0
 10
378168.5
 20
-5157.8047
 10
378167.875
 20
-5157.8047
  0
LWPOLYLINE
  5
798
330
1F
100
AcDbEntity
  8
0
  6
Continuous
 62
     7
100
AcDbPolyline
 90
        2
 70
     0
 43
0.0
 10
378165.4375
 20
-5154.7163
 10
378164.8125
 20
-5154.7163
  0
LWPOLYLINE
  5
79C
330
1F
100
AcDbEntity
  8
0
  6
Continuous
 62
     7
100
AcDbPolyline
 90
        2
 70
     0
 43
0.0
 10
378168.5
 20
-5151.6279
 10
378167.875
 20
-5151.6279
  0
LWPOLYLINE
  5
7A0
330
1F
100
AcDbEntity
  8
0
  6
Continuous
 62
     7
100
AcDbPolyline
 90
        2
 70
     0
 43
0.0
 10
378165.4375
 20
-5148.54
 10
378164.8125
 20
-5148.54
  0
LWPOLYLINE
  5
7A4
330
1F
100
AcDbEntity
  8
0
  6
Continuous
 62
     7
100
AcDbPolyline
 90
        2
 70
     0
 43
0.0
 10
378168.5
 20
-5145.4521
 10
378167.875
 20
-5145.4521
  0
LWPOLYLINE
  5
7A8
330
1F
100
AcDbEntity
  8
0
  6
Continuous
 62
     7
100
AcDbPolyline
 90
        2
 70
     0
 43
0.0
 10
378165.4375
 20
-5142.3643
 10
378164.8125
 20
-5142.3643
  0
LWPOLYLINE
  5
7AC
330
1F
100
AcDbEntity
  8
0
  6
Continuous
 62
     7
100
AcDbPolyline
 90
        2
 70
     0
 43
0.0
 10
378168.5
 20
-5139.2764
 10
378167.875
 20
-5139.2764
  0
LWPOLYLINE
  5
7B0
330
1F
100
AcDbEntity
  8
0
  6
Continuous
 62
     7
100
AcDbPolyline
 90
        2
 70
     0
 43
0.0
 10
378165.4375
 20
-5136.188
 10
378164.8125
 20
-5136.188
  0
LWPOLYLINE
  5
7B4
330
1F
100
AcDbEntity
  8
0
  6
Continuous
 62
     7
100
AcDbPolyline
 90
        2
 70
     0
 43
0.0
 10
378168.5
 20
-5133.0996
 10
378167.875
 20
-5133.0996
  0
LWPOLYLINE
  5
7B8
330
1F
100
AcDbEntity
  8
0
  6
Continuous
 62
     7
100
AcDbPolyline
 90
        2
 70
     0
 43
0.0
 10
378165.4375
 20
-5130.0117
 10
378164.8125
 20
-5130.0117
  0
LWPOLYLINE
  5
7BC
330
1F
100
AcDbEntity
  8
0
  6
Continuous
 62
     7
100
AcDbPolyline
 90
        2
 70
     0
 43
0.0
 10
378168.5
 20
-5126.9238
 10
378167.875
 20
-5126.9238
  0
LWPOLYLINE
  5
7C0
330
1F
100
AcDbEntity
  8
0
  6
Continuous
 62
     7
100
AcDbPolyline
 90
        2
 70
     0
 43
0.0
 10
378165.4375
 20
-5123.8359
 10
378164.8125
 20
-5123.8359
  0
LWPOLYLINE
  5
7C4
330
1F
100
AcDbEntity
  8
0
  6
Continuous
 62
     7
100
AcDbPolyline
 90
        2
 70
     0
 43
0.0
 10
378168.5
 20
-5120.748
 10
378167.875
 20
-5120.748
  0
LWPOLYLINE
  5
7C8
330
1F
100
AcDbEntity
  8
0
  6
Continuous
 62
     7
100
AcDbPolyline
 90
        2
 70
     0
 43
0.0
 10
378165.4375
 20
-5117.6597
 10
378164.8125
 20
-5117.6597
  0
LWPOLYLINE
  5
7CC
330
1F
100
AcDbEntity
  8
0
  6
Continuous
 62
     7
100
AcDbPolyline
 90
        2
 70
     0
 43
0.0
 10
378168.5
 20
-5114.5713
 10
378167.875
 20
-5114.5713
  0
LWPOLYLINE
  5
7D0
330
1F
100
AcDbEntity
  8
0
  6
Continuous
 62
     7
100
AcDbPolyline
 90
        2
 70
     0
 43
0.0
 10
378165.4375
 20
-5111.4834
 10
378164.8125
 20
-5111.4834
  0
LWPOLYLINE
  5
7D4
330
1F
100
AcDbEntity
  8
0
  6
Continuous
 62
     7
100
AcDbPolyline
 90
        2
 70
     0
 43
0.0
 10
378168.5
 20
-5108.3955
 10
378167.875
 20
-5108.3955
  0
LWPOLYLINE
  5
7D8
330
1F
100
AcDbEntity
  8
0
  6
Continuous
 62
     7
100
AcDbPolyline
 90
        2
 70
     0
 43
0.0
 10
378165.4375
 20
-5105.3076
 10
378164.8125
 20
-5105.3076
  0
LWPOLYLINE
  5
7DC
330
1F
100
AcDbEntity
  8
0
  6
Continuous
 62
     7
100
AcDbPolyline
 90
        2
 70
     0
 43
0.0
 10
378168.5
 20
-5102.2197
 10
378167.875
 20
-5102.2197
  0
LWPOLYLINE
  5
7E0
330
1F
100
AcDbEntity
  8
0
  6
Continuous
 62
     7
100
AcDbPolyline
 90
        2
 70
     0
 43
0.0
 10
378165.4375
 20
-5099.1309
 10
378164.8125
 20
-5099.1309
  0
LWPOLYLINE
  5
7E4
330
1F
100
AcDbEntity
  8
0
  6
Continuous
 62
     7
100
AcDbPolyline
 90
        2
 70
     0
 43
0.0
 10
378168.5
 20
-5096.043
 10
378167.875
 20
-5096.043
  0
LWPOLYLINE
  5
7E8
330
1F
100
AcDbEntity
  8
0
  6
Continuous
 62
     7
100
AcDbPolyline
 90
        2
 70
     0
 43
0.0
 10
378165.4375
 20
-5092.9551
 10
378164.8125
 20
-5092.9551
  0
LWPOLYLINE
  5
7EC
330
1F
100
AcDbEntity
  8
0
  6
Continuous
 62
     7
100
AcDbPolyline
 90
        2
 70
     0
 43
0.0
 10
378168.5
 20
-5089.8672
 10
378167.875
 20
-5089.8672
  0
LWPOLYLINE
  5
7F0
330
1F
100
AcDbEntity
  8
0
  6
Continuous
 62
     7
100
AcDbPolyline
 90
        2
 70
     0
 43
0.0
 10
378165.4375
 20
-5086.7793
 10
378164.8125
 20
-5086.7793
  0
LWPOLYLINE
  5
7F4
330
1F
100
AcDbEntity
  8
0
  6
Continuous
 62
     7
100
AcDbPolyline
 90
        2
 70
     0
 43
0.0
 10
378168.5
 20
-5083.6914
 10
378167.875
 20
-5083.6914
  0
LWPOLYLINE
  5
7F8
330
1F
100
AcDbEntity
  8
0
  6
Continuous
 62
     7
100
AcDbPolyline
 90
        2
 70
     0
 43
0.0
 10
378165.4375
 20
-5080.603
 10
378164.8125
 20
-5080.603
  0
LWPOLYLINE
  5
7FC
330
1F
100
AcDbEntity
  8
0
  6
Continuous
 62
     7
100
AcDbPolyline
 90
        2
 70
     0
 43
0.0
 10
378168.5
 20
-5077.5146
 10
378167.875
 20
-5077.5146
  0
LWPOLYLINE
  5
800
330
1F
100
AcDbEntity
  8
0
  6
Continuous
 62
     7
100
AcDbPolyline
 90
        2
 70
     0
 43
0.0
 10
378165.4375
 20
-5074.4268
 10
378164.8125
 20
-5074.4268
  0
LWPOLYLINE
  5
804
330
1F
100
AcDbEntity
  8
0
  6
Continuous
 62
     7
100
AcDbPolyline
 90
        2
 70
     0
 43
2.5
 10
378169.9063
 20
-5263.1587
 10
378346.0
 20
-5263.1587
  0
LWPOLYLINE
  5
808
330
1F
100
AcDbEntity
  8
0
  6
Continuous
 62
     7
100
AcDbPolyline
 90
        4
 70
     0
 43
0.0
 10
378170.0
 20
-5072.1543
 10
378164.0
 20
-5072.1543
 10
378164.0
 20
-5268.1543
 10
378346.0
 20
-5268.1587
  0
LWPOLYLINE
  5
80E
330
1F
100
AcDbEntity
  8
0
  6
Continuous
 62
     7
100
AcDbPolyline
 90
        2
 70
     0
 43
0.0
 10
378253.0625
 20
-5200.981
 10
378257.875
 20
-5192.5801
  0
LWPOLYLINE
  5
812
330
1F
100
AcDbEntity
  8
0
  6
Continuous
 62
     7
100
AcDbPolyline
 90
        2
 70
     0
 43
0.0
 10
378262.75
 20
-5184.1797
 10
378267.5938
 20
-5175.7793
  0
LWPOLYLINE
  5
816
330
1F
100
AcDbEntity
  8
0
  6
Continuous
 62
     7
100
AcDbPolyline
 90
        2
 70
     0
 43
0.0
 10
378272.4375
 20
-5167.3789
 10
378277.3125
 20
-5158.9785
  0
LWPOLYLINE
  5
81A
330
1F
100
AcDbEntity
  8
0
  6
Continuous
 62
     7
100
AcDbPolyline
 90
        2
 70
     0
 43
0.0
 10
378282.125
 20
-5150.5781
 10
378287.0
 20
-5142.1772
  0
LWPOLYLINE
  5
81E
330
1F
100
AcDbEntity
  8
0
  6
Continuous
 62
     7
100
AcDbPolyline
 90
        2
 70
     0
 43
0.0
 10
378291.8438
 20
-5133.7764
 10
378294.5625
 20
-5129.042
  0
LWPOLYLINE
  5
822
330
1F
100
AcDbEntity
  8
0
  6
Continuous
 62
     7
100
AcDbPolyline
 90
        2
 70
     0
 43
0.0
 10
378240.5
 20
-5189.0869
 10
378243.3438
 20
-5184.1807
  0
LWPOLYLINE
  5
826
330
1F
100
AcDbEntity
  8
0
  6
Continuous
 62
     7
100
AcDbPolyline
 90
        2
 70
     0
 43
0.0
 10
378248.1875
 20
-5175.7793
 10
378253.0625
 20
-5167.3779
  0
LWPOLYLINE
  5
82A
330
1F
100
AcDbEntity
  8
0
  6
Continuous
 62
     7
100
AcDbPolyline
 90
        2
 70
     0
 43
0.0
 10
378257.875
 20
-5158.9775
 10
378262.75
 20
-5150.5762
  0
LWPOLYLINE
  5
82E
330
1F
100
AcDbEntity
  8
0
  6
Continuous
 62
     7
100
AcDbPolyline
 90
        2
 70
     0
 43
0.0
 10
378267.5938
 20
-5142.1748
 10
378272.4375
 20
-5133.7734
  0
LWPOLYLINE
  5
832
330
1F
100
AcDbEntity
  8
0
  6
Continuous
 62
     7
100
AcDbPolyline
 90
        2
 70
     0
 43
0.0
 10
378277.3125
 20
-5125.3726
 10
378278.9063
 20
-5122.5576
  0
LWPOLYLINE
  5
836
330
1F
100
AcDbEntity
  8
0
  6
Continuous
 62
     7
100
AcDbPolyline
 90
        2
 70
     0
 43
0.0
 10
378233.625
 20
-5167.3809
 10
378238.5
 20
-5158.9795
  0
LWPOLYLINE
  5
83A
330
1F
100
AcDbEntity
  8
0
  6
Continuous
 62
     7
100
AcDbPolyline
 90
        2
 70
     0
 43
0.0
 10
378243.3438
 20
-5150.5781
 10
378248.1875
 20
-5142.1768
  0
LWPOLYLINE
  5
83E
330
1F
100
AcDbEntity
  8
0
  6
Continuous
 62
     7
100
AcDbPolyline
 90
        2
 70
     0
 43
0.0
 10
378253.0625
 20
-5133.7754
 10
378257.875
 20
-5125.374
  0
LWPOLYLINE
  5
842
330
1F
100
AcDbEntity
  8
0
  6
Continuous
 62
     7
100
AcDbPolyline
 90
        2
 70
     0
 43
0.0
 10
378267.625
 20
-5209.3848
 10
378272.4375
 20
-5200.9834
  0
LWPOLYLINE
  5
846
330
1F
100
AcDbEntity
  8
0
  6
Continuous
 62
     7
100
AcDbPolyline
 90
        2
 70
     0
 43
0.0
 10
378277.3125
 20
-5192.582
 10
378282.1563
 20
-5184.1816
  0
LWPOLYLINE
  5
84A
330
1F
100
AcDbEntity
  8
0
  6
Continuous
 62
     7
100
AcDbPolyline
 90
        2
 70
     0
 43
0.0
 10
378287.0
 20
-5175.7803
 10
378291.875
 20
-5167.3789
  0
LWPOLYLINE
  5
84E
330
1F
100
AcDbEntity
  8
0
  6
Continuous
 62
     7
100
AcDbPolyline
 90
        2
 70
     0
 43
0.0
 10
378296.6875
 20
-5158.9775
 10
378301.5625
 20
-5150.5767
  0
LWPOLYLINE
  5
852
330
1F
100
AcDbEntity
  8
0
  6
Continuous
 62
     7
100
AcDbPolyline
 90
        2
 70
     0
 43
0.0
 10
378306.4063
 20
-5142.1758
 10
378310.2188
 20
-5135.5313
  0
LWPOLYLINE
  5
856
330
1F
100
AcDbEntity
  8
0
  6
Continuous
 62
     7
100
AcDbPolyline
 90
        2
 70
     0
 43
0.0
 10
378284.25
 20
-5214.1582
 10
378287.0
 20
-5209.3838
  0
LWPOLYLINE
  5
85A
330
1F
100
AcDbEntity
  8
0
  6
Continuous
 62
     7
100
AcDbPolyline
 90
        2
 70
     0
 43
0.0
 10
378291.8438
 20
-5200.9834
 10
378296.6875
 20
-5192.582
  0
LWPOLYLINE
  5
85E
330
1F
100
AcDbEntity
  8
0
  6
Continuous
 62
     7
100
AcDbPolyline
 90
        2
 70
     0
 43
0.0
 10
378301.5625
 20
-5184.1807
 10
378306.375
 20
-5175.7803
  0
LWPOLYLINE
  5
862
330
1F
100
AcDbEntity
  8
0
  6
Continuous
 62
     7
100
AcDbPolyline
 90
        2
 70
     0
 43
0.0
 10
378311.25
 20
-5167.3789
 10
378315.9063
 20
-5159.2881
  0
LWPOLYLINE
  5
866
330
1F
100
AcDbEntity
  8
0
  6
Continuous
 62
     7
100
AcDbPolyline
 90
        2
 70
     0
 43
0.0
 10
378306.375
 20
-5209.3789
 10
378311.0625
 20
-5201.2656
  0
LWPOLYLINE
  5
86A
330
1F
100
AcDbEntity
  8
0
  6
Continuous
 62
     7
100
AcDbPolyline
 90
        2
 70
     0
 43
0.0
 10
378230.375
 20
-5167.3779
 10
378233.375
 20
-5167.3779
  0
LWPOLYLINE
  5
86E
330
1F
100
AcDbEntity
  8
0
  6
Continuous
 62
     7
100
AcDbPolyline
 90
        2
 70
     0
 43
0.0
 10
378243.0625
 20
-5167.3779
 10
378252.75
 20
-5167.3779
  0
LWPOLYLINE
  5
872
330
1F
100
AcDbEntity
  8
0
  6
Continuous
 62
     7
100
AcDbPolyline
 90
        2
 70
     0
 43
0.0
 10
378262.4688
 20
-5167.3779
 10
378272.1875
 20
-5167.3779
  0
LWPOLYLINE
  5
876
330
1F
100
AcDbEntity
  8
0
  6
Continuous
 62
     7
100
AcDbPolyline
 90
        2
 70
     0
 43
0.0
 10
378281.875
 20
-5167.3779
 10
378291.5625
 20
-5167.3779
  0
LWPOLYLINE
  5
87A
330
1F
100
AcDbEntity
  8
0
  6
Continuous
 62
     7
100
AcDbPolyline
 90
        2
 70
     0
 43
0.0
 10
378301.25
 20
-5167.3779
 10
378310.9688
 20
-5167.3779
  0
LWPOLYLINE
  5
87E
330
1F
100
AcDbEntity
  8
0
  6
Continuous
 62
     7
100
AcDbPolyline
 90
        2
 70
     0
 43
0.0
 10
378243.0625
 20
-5150.5781
 10
378252.75
 20
-5150.5781
  0
LWPOLYLINE
  5
882
330
1F
100
AcDbEntity
  8
0
  6
Continuous
 62
     7
100
AcDbPolyline
 90
        2
 70
     0
 43
0.0
 10
378262.4688
 20
-5150.5781
 10
378272.1875
 20
-5150.5781
  0
LWPOLYLINE
  5
886
330
1F
100
AcDbEntity
  8
0
  6
Continuous
 62
     7
100
AcDbPolyline
 90
        2
 70
     0
 43
0.0
 10
378281.875
 20
-5150.5781
 10
378291.5625
 20
-5150.5781
  0
LWPOLYLINE
  5
88A
330
1F
100
AcDbEntity
  8
0
  6
Continuous
 62
     7
100
AcDbPolyline
 90
        2
 70
     0
 43
0.0
 10
378301.25
 20
-5150.5781
 10
378310.9688
 20
-5150.5781
  0
LWPOLYLINE
  5
88E
330
1F
100
AcDbEntity
  8
0
  6
Continuous
 62
     7
100
AcDbPolyline
 90
        2
 70
     0
 43
0.0
 10
378246.4063
 20
-5133.7773
 10
378252.75
 20
-5133.7773
  0
LWPOLYLINE
  5
892
330
1F
100
AcDbEntity
  8
0
  6
Continuous
 62
     7
100
AcDbPolyline
 90
        2
 70
     0
 43
0.0
 10
378262.4688
 20
-5133.7773
 10
378272.1875
 20
-5133.7773
  0
LWPOLYLINE
  5
896
330
1F
100
AcDbEntity
  8
0
  6
Continuous
 62
     7
100
AcDbPolyline
 90
        2
 70
     0
 43
0.0
 10
378281.875
 20
-5133.7773
 10
378291.5625
 20
-5133.7773
  0
LWPOLYLINE
  5
89A
330
1F
100
AcDbEntity
  8
0
  6
Continuous
 62
     7
100
AcDbPolyline
 90
        2
 70
     0
 43
0.0
 10
378301.25
 20
-5133.7773
 10
378306.0
 20
-5133.7773
  0
LWPOLYLINE
  5
89E
330
1F
100
AcDbEntity
  8
0
  6
Continuous
 62
     7
100
AcDbPolyline
 90
        2
 70
     0
 43
0.0
 10
378243.0625
 20
-5184.1787
 10
378252.75
 20
-5184.1787
  0
LWPOLYLINE
  5
8A2
330
1F
100
AcDbEntity
  8
0
  6
Continuous
 62
     7
100
AcDbPolyline
 90
        2
 70
     0
 43
0.0
 10
378262.4688
 20
-5184.1787
 10
378272.1875
 20
-5184.1787
  0
LWPOLYLINE
  5
8A6
330
1F
100
AcDbEntity
  8
0
  6
Continuous
 62
     7
100
AcDbPolyline
 90
        2
 70
     0
 43
0.0
 10
378281.875
 20
-5184.1787
 10
378291.5625
 20
-5184.1787
  0
LWPOLYLINE
  5
8AA
330
1F
100
AcDbEntity
  8
0
  6
Continuous
 62
     7
100
AcDbPolyline
 90
        2
 70
     0
 43
0.0
 10
378301.25
 20
-5184.1787
 10
378310.9688
 20
-5184.1787
  0
LWPOLYLINE
  5
8AE
330
1F
100
AcDbEntity
  8
0
  6
Continuous
 62
     7
100
AcDbPolyline
 90
        2
 70
     0
 43
0.0
 10
378246.0625
 20
-5200.9785
 10
378252.75
 20
-5200.9785
  0
LWPOLYLINE
  5
8B2
330
1F
100
AcDbEntity
  8
0
  6
Continuous
 62
     7
100
AcDbPolyline
 90
        2
 70
     0
 43
0.0
 10
378262.4688
 20
-5200.9785
 10
378272.1875
 20
-5200.9785
  0
LWPOLYLINE
  5
8B6
330
1F
100
AcDbEntity
  8
0
  6
Continuous
 62
     7
100
AcDbPolyline
 90
        2
 70
     0
 43
0.0
 10
378281.875
 20
-5200.9785
 10
378291.5625
 20
-5200.9785
  0
LWPOLYLINE
  5
8BA
330
1F
100
AcDbEntity
  8
0
  6
Continuous
 62
     7
100
AcDbPolyline
 90
        2
 70
     0
 43
0.0
 10
378301.25
 20
-5200.9785
 10
378310.9688
 20
-5200.9785
  0
LWPOLYLINE
  5
8BE
330
1F
100
AcDbEntity
  8
0
  6
Continuous
 62
     7
100
AcDbPolyline
 90
        2
 70
     0
 43
0.0
 10
378289.75
 20
-5214.1582
 10
378286.9688
 20
-5209.3848
  0
LWPOLYLINE
  5
8C2
330
1F
100
AcDbEntity
  8
0
  6
Continuous
 62
     7
100
AcDbPolyline
 90
        2
 70
     0
 43
0.0
 10
378282.125
 20
-5200.9844
 10
378277.2813
 20
-5192.5845
  0
LWPOLYLINE
  5
8C6
330
1F
100
AcDbEntity
  8
0
  6
Continuous
 62
     7
100
AcDbPolyline
 90
        2
 70
     0
 43
0.0
 10
378272.4375
 20
-5184.1846
 10
378267.5625
 20
-5175.7842
  0
LWPOLYLINE
  5
8CA
330
1F
100
AcDbEntity
  8
0
  6
Continuous
 62
     7
100
AcDbPolyline
 90
        2
 70
     0
 43
0.0
 10
378262.7188
 20
-5167.3838
 10
378257.875
 20
-5158.9839
  0
LWPOLYLINE
  5
8CE
330
1F
100
AcDbEntity
  8
0
  6
Continuous
 62
     7
100
AcDbPolyline
 90
        2
 70
     0
 43
0.0
 10
378253.0313
 20
-5150.584
 10
378248.1875
 20
-5142.1836
  0
LWPOLYLINE
  5
8D2
330
1F
100
AcDbEntity
  8
0
  6
Continuous
 62
     7
100
AcDbPolyline
 90
        2
 70
     0
 43
0.0
 10
378267.5938
 20
-5209.3838
 10
378262.75
 20
-5200.9834
  0
LWPOLYLINE
  5
8D6
330
1F
100
AcDbEntity
  8
0
  6
Continuous
 62
     7
100
AcDbPolyline
 90
        2
 70
     0
 43
0.0
 10
378257.875
 20
-5192.584
 10
378253.0625
 20
-5184.1836
  0
LWPOLYLINE
  5
8DA
330
1F
100
AcDbEntity
  8
0
  6
Continuous
 62
     7
100
AcDbPolyline
 90
        2
 70
     0
 43
0.0
 10
378248.1875
 20
-5175.7832
 10
378243.3438
 20
-5167.3828
  0
LWPOLYLINE
  5
8DE
330
1F
100
AcDbEntity
  8
0
  6
Continuous
 62
     7
100
AcDbPolyline
 90
        2
 70
     0
 43
0.0
 10
378238.5
 20
-5158.9834
 10
378235.25
 20
-5153.4004
  0
LWPOLYLINE
  5
8E2
330
1F
100
AcDbEntity
  8
0
  6
Continuous
 62
     7
100
AcDbPolyline
 90
        2
 70
     0
 43
0.0
 10
378306.375
 20
-5209.3789
 10
378301.5625
 20
-5200.9785
  0
LWPOLYLINE
  5
8E6
330
1F
100
AcDbEntity
  8
0
  6
Continuous
 62
     7
100
AcDbPolyline
 90
        2
 70
     0
 43
0.0
 10
378296.6875
 20
-5192.5781
 10
378291.8438
 20
-5184.1777
  0
LWPOLYLINE
  5
8EA
330
1F
100
AcDbEntity
  8
0
  6
Continuous
 62
     7
100
AcDbPolyline
 90
        2
 70
     0
 43
0.0
 10
378287.0
 20
-5175.7773
 10
378282.125
 20
-5167.377
  0
LWPOLYLINE
  5
8EE
330
1F
100
AcDbEntity
  8
0
  6
Continuous
 62
     7
100
AcDbPolyline
 90
        2
 70
     0
 43
0.0
 10
378277.3125
 20
-5158.9766
 10
378272.4375
 20
-5150.5762
  0
LWPOLYLINE
  5
8F2
330
1F
100
AcDbEntity
  8
0
  6
Continuous
 62
     7
100
AcDbPolyline
 90
        2
 70
     0
 43
0.0
 10
378267.5938
 20
-5142.1758
 10
378262.75
 20
-5133.7754
  0
LWPOLYLINE
  5
8F6
330
1F
100
AcDbEntity
  8
0
  6
Continuous
 62
     7
100
AcDbPolyline
 90
        2
 70
     0
 43
0.0
 10
378257.875
 20
-5125.375
 10
378257.875
 20
-5125.3682
  0
LWPOLYLINE
  5
8FA
330
1F
100
AcDbEntity
  8
0
  6
Continuous
 62
     7
100
AcDbPolyline
 90
        2
 70
     0
 43
0.0
 10
378311.2188
 20
-5184.1846
 10
378306.375
 20
-5175.7842
  0
LWPOLYLINE
  5
8FE
330
1F
100
AcDbEntity
  8
0
  6
Continuous
 62
     7
100
AcDbPolyline
 90
        2
 70
     0
 43
0.0
 10
378301.5313
 20
-5167.3828
 10
378296.6875
 20
-5158.9814
  0
LWPOLYLINE
  5
902
330
1F
100
AcDbEntity
  8
0
  6
Continuous
 62
     7
100
AcDbPolyline
 90
        2
 70
     0
 43
0.0
 10
378291.8125
 20
-5150.5811
 10
378286.9688
 20
-5142.1797
  0
LWPOLYLINE
  5
906
330
1F
100
AcDbEntity
  8
0
  6
Continuous
 62
     7
100
AcDbPolyline
 90
        2
 70
     0
 43
0.0
 10
378282.125
 20
-5133.7783
 10
378277.2813
 20
-5125.3779
  0
LWPOLYLINE
  5
90A
330
1F
100
AcDbEntity
  8
0
  6
Continuous
 62
     7
100
AcDbPolyline
 90
        2
 70
     0
 43
0.0
 10
378315.9063
 20
-5158.6768
 10
378311.25
 20
-5150.5801
  0
LWPOLYLINE
  5
90E
330
1F
100
AcDbEntity
  8
0
  6
Continuous
 62
     7
100
AcDbPolyline
 90
        2
 70
     0
 43
0.0
 10
378306.375
 20
-5142.1797
 10
378301.5625
 20
-5133.7788
  0
LWPOLYLINE
  5
912
330
1F
100
AcDbEntity
  8
0
  6
Continuous
 62
     7
100
AcDbPolyline
 90
        2
 70
     0
 43
0.0
 10
377963.0
 20
-5339.1592
 10
377963.0
 20
-5339.1592
  0
LWPOLYLINE
  5
916
330
1F
100
AcDbEntity
  8
0
  6
Continuous
 62
     7
100
AcDbPolyline
 90
        2
 70
     0
 43
0.0
 10
378166.0
 20
-5268.1587
 10
378166.0
 20
-5267.1582
  0
LWPOLYLINE
  5
91A
330
1F
100
AcDbEntity
  8
0
  6
Continuous
 62
     7
100
AcDbPolyline
 90
        2
 70
     0
 43
0.0
 10
378166.0
 20
-5268.1587
 10
378166.0
 20
-5339.1592
  0
LWPOLYLINE
  5
91E
330
1F
100
AcDbEntity
  8
0
  6
Continuous
 62
     7
100
AcDbPolyline
 90
        2
 70
     0
 43
0.0
 10
378166.0
 20
-5339.1592
 10
377963.0
 20
-5339.1592
  0
LWPOLYLINE
  5
922
330
1F
100
AcDbEntity
  8
0
  6
Continuous
 62
     7
100
AcDbPolyline
 90
        2
 70
     0
 43
0.0
 10
378163.0
 20
-5073.1543
 10
377960.0
 20
-5073.1582
  0
LWPOLYLINE
  5
926
330
1F
100
AcDbEntity
  8
0
  6
Continuous
 62
     7
100
AcDbPolyline
 90
        2
 70
     0
 43
0.0
 10
378574.1875
 20
-4583.5742
 10
378579.0
 20
-4575.1733
  0
LWPOLYLINE
  5
92A
330
1F
100
AcDbEntity
  8
0
  6
Continuous
 62
     7
100
AcDbPolyline
 90
        2
 70
     0
 43
0.0
 10
378583.875
 20
-4566.772
 10
378588.7188
 20
-4558.3711
  0
LWPOLYLINE
  5
92E
330
1F
100
AcDbEntity
  8
0
  6
Continuous
 62
     7
100
AcDbPolyline
 90
        2
 70
     0
 43
0.0
 10
378593.5625
 20
-4549.9697
 10
378598.4375
 20
-4541.5684
  0
LWPOLYLINE
  5
932
330
1F
100
AcDbEntity
  8
0
  6
Continuous
 62
     7
100
AcDbPolyline
 90
        2
 70
     0
 43
0.0
 10
378603.25
 20
-4533.167
 10
378608.125
 20
-4524.7656
  0
LWPOLYLINE
  5
936
330
1F
100
AcDbEntity
  8
0
  6
Continuous
 62
     7
100
AcDbPolyline
 90
        2
 70
     0
 43
0.0
 10
378612.9688
 20
-4516.3643
 10
378615.6875
 20
-4511.6426
  0
LWPOLYLINE
  5
93A
330
1F
100
AcDbEntity
  8
0
  6
Continuous
 62
     7
100
AcDbPolyline
 90
        2
 70
     0
 43
0.0
 10
378561.625
 20
-4571.6807
 10
378564.4375
 20
-4566.7676
  0
LWPOLYLINE
  5
93E
330
1F
100
AcDbEntity
  8
0
  6
Continuous
 62
     7
100
AcDbPolyline
 90
        2
 70
     0
 43
0.0
 10
378569.3125
 20
-4558.3672
 10
378574.1563
 20
-4549.9668
  0
LWPOLYLINE
  5
942
330
1F
100
AcDbEntity
  8
0
  6
Continuous
 62
     7
100
AcDbPolyline
 90
        2
 70
     0
 43
0.0
 10
378579.0
 20
-4541.5664
 10
378583.875
 20
-4533.167
  0
LWPOLYLINE
  5
946
330
1F
100
AcDbEntity
  8
0
  6
Continuous
 62
     7
100
AcDbPolyline
 90
        2
 70
     0
 43
0.0
 10
378588.6875
 20
-4524.7666
 10
378593.5625
 20
-4516.3662
  0
LWPOLYLINE
  5
94A
330
1F
100
AcDbEntity
  8
0
  6
Continuous
 62
     7
100
AcDbPolyline
 90
        2
 70
     0
 43
0.0
 10
378598.4063
 20
-4507.9658
 10
378600.0625
 20
-4505.1572
  0
LWPOLYLINE
  5
94E
330
1F
100
AcDbEntity
  8
0
  6
Continuous
 62
     7
100
AcDbPolyline
 90
        2
 70
     0
 43
0.0
 10
378554.75
 20
-4549.9673
 10
378559.625
 20
-4541.5674
  0
LWPOLYLINE
  5
952
330
1F
100
AcDbEntity
  8
0
  6
Continuous
 62
     7
100
AcDbPolyline
 90
        2
 70
     0
 43
0.0
 10
378564.4688
 20
-4533.167
 10
378569.3125
 20
-4524.7676
  0
LWPOLYLINE
  5
956
330
1F
100
AcDbEntity
  8
0
  6
Continuous
 62
     7
100
AcDbPolyline
 90
        2
 70
     0
 43
0.0
 10
378574.1875
 20
-4516.3672
 10
378579.0
 20
-4507.9668
  0
LWPOLYLINE
  5
95A
330
1F
100
AcDbEntity
  8
0
  6
Continuous
 62
     7
100
AcDbPolyline
 90
        2
 70
     0
 43
0.0
 10
378588.75
 20
-4591.9785
 10
378593.5938
 20
-4583.5776
  0
LWPOLYLINE
  5
95E
330
1F
100
AcDbEntity
  8
0
  6
Continuous
 62
     7
100
AcDbPolyline
 90
        2
 70
     0
 43
0.0
 10
378598.4375
 20
-4575.1768
 10
378603.2813
 20
-4566.7754
  0
LWPOLYLINE
  5
962
330
1F
100
AcDbEntity
  8
0
  6
Continuous
 62
     7
100
AcDbPolyline
 90
        2
 70
     0
 43
0.0
 10
378608.125
 20
-4558.3745
 10
378613.0
 20
-4549.9736
  0
LWPOLYLINE
  5
966
330
1F
100
AcDbEntity
  8
0
  6
Continuous
 62
     7
100
AcDbPolyline
 90
        2
 70
     0
 43
0.0
 10
378617.8438
 20
-4541.5723
 10
378622.6875
 20
-4533.1714
  0
LWPOLYLINE
  5
96A
330
1F
100
AcDbEntity
  8
0
  6
Continuous
 62
     7
100
AcDbPolyline
 90
        2
 70
     0
 43
0.0
 10
378627.5313
 20
-4524.7705
 10
378631.375
 20
-4518.1318
  0
LWPOLYLINE
  5
96E
330
1F
100
AcDbEntity
  8
0
  6
Continuous
 62
     7
100
AcDbPolyline
 90
        2
 70
     0
 43
0.0
 10
378605.375
 20
-4596.75
 10
378608.125
 20
-4591.9702
  0
LWPOLYLINE
  5
972
330
1F
100
AcDbEntity
  8
0
  6
Continuous
 62
     7
100
AcDbPolyline
 90
        2
 70
     0
 43
0.0
 10
378612.9688
 20
-4583.5703
 10
378617.8125
 20
-4575.1709
  0
LWPOLYLINE
  5
976
330
1F
100
AcDbEntity
  8
0
  6
Continuous
 62
     7
100
AcDbPolyline
 90
        2
 70
     0
 43
0.0
 10
378622.6875
 20
-4566.7715
 10
378627.5
 20
-4558.3716
  0
LWPOLYLINE
  5
97A
330
1F
100
AcDbEntity
  8
0
  6
Continuous
 62
     7
100
AcDbPolyline
 90
        2
 70
     0
 43
0.0
 10
378632.375
 20
-4549.9717
 10
378637.0313
 20
-4541.9141
  0
LWPOLYLINE
  5
97E
330
1F
100
AcDbEntity
  8
0
  6
Continuous
 62
     7
100
AcDbPolyline
 90
        2
 70
     0
 43
0.0
 10
378627.5
 20
-4591.9746
 10
378632.1875
 20
-4583.8965
  0
LWPOLYLINE
  5
982
330
1F
100
AcDbEntity
  8
0
  6
Continuous
 62
     7
100
AcDbPolyline
 90
        2
 70
     0
 43
0.0
 10
378551.5
 20
-4549.9707
 10
378554.5
 20
-4549.9707
  0
LWPOLYLINE
  5
986
330
1F
100
AcDbEntity
  8
0
  6
Continuous
 62
     7
100
AcDbPolyline
 90
        2
 70
     0
 43
0.0
 10
378564.1875
 20
-4549.9707
 10
378573.875
 20
-4549.9707
  0
LWPOLYLINE
  5
98A
330
1F
100
AcDbEntity
  8
0
  6
Continuous
 62
     7
100
AcDbPolyline
 90
        2
 70
     0
 43
0.0
 10
378583.5938
 20
-4549.9707
 10
378593.3125
 20
-4549.9707
  0
LWPOLYLINE
  5
98E
330
1F
100
AcDbEntity
  8
0
  6
Continuous
 62
     7
100
AcDbPolyline
 90
        2
 70
     0
 43
0.0
 10
378603.0
 20
-4549.9707
 10
378612.6875
 20
-4549.9707
  0
LWPOLYLINE
  5
992
330
1F
100
AcDbEntity
  8
0
  6
Continuous
 62
     7
100
AcDbPolyline
 90
        2
 70
     0
 43
0.0
 10
378622.375
 20
-4549.9707
 10
378632.0938
 20
-4549.9707
  0
LWPOLYLINE
  5
996
330
1F
100
AcDbEntity
  8
0
  6
Continuous
 62
     7
100
AcDbPolyline
 90
        2
 70
     0
 43
0.0
 10
378564.1875
 20
-4533.1709
 10
378573.875
 20
-4533.1709
  0
LWPOLYLINE
  5
99A
330
1F
100
AcDbEntity
  8
0
  6
Continuous
 62
     7
100
AcDbPolyline
 90
        2
 70
     0
 43
0.0
 10
378583.5938
 20
-4533.1709
 10
378593.3125
 20
-4533.1709
  0
LWPOLYLINE
  5
99E
330
1F
100
AcDbEntity
  8
0
  6
Continuous
 62
     7
100
AcDbPolyline
 90
        2
 70
     0
 43
0.0
 10
378603.0
 20
-4533.1709
 10
378612.6875
 20
-4533.1709
  0
LWPOLYLINE
  5
9A2
330
1F
100
AcDbEntity
  8
0
  6
Continuous
 62
     7
100
AcDbPolyline
 90
        2
 70
     0
 43
0.0
 10
378622.375
 20
-4533.1709
 10
378632.0938
 20
-4533.1709
  0
LWPOLYLINE
  5
9A6
330
1F
100
AcDbEntity
  8
0
  6
Continuous
 62
     7
100
AcDbPolyline
 90
        2
 70
     0
 43
0.0
 10
378567.5625
 20
-4516.3701
 10
378573.875
 20
-4516.3701
  0
LWPOLYLINE
  5
9AA
330
1F
100
AcDbEntity
  8
0
  6
Continuous
 62
     7
100
AcDbPolyline
 90
        2
 70
     0
 43
0.0
 10
378583.5938
 20
-4516.3701
 10
378593.3125
 20
-4516.3701
  0
LWPOLYLINE
  5
9AE
330
1F
100
AcDbEntity
  8
0
  6
Continuous
 62
     7
100
AcDbPolyline
 90
        2
 70
     0
 43
0.0
 10
378603.0
 20
-4516.3701
 10
378612.6875
 20
-4516.3701
  0
LWPOLYLINE
  5
9B2
330
1F
100
AcDbEntity
  8
0
  6
Continuous
 62
     7
100
AcDbPolyline
 90
        2
 70
     0
 43
0.0
 10
378622.375
 20
-4516.3701
 10
378627.125
 20
-4516.3701
  0
LWPOLYLINE
  5
9B6
330
1F
100
AcDbEntity
  8
0
  6
Continuous
 62
     7
100
AcDbPolyline
 90
        2
 70
     0
 43
0.0
 10
378564.1875
 20
-4566.7715
 10
378573.875
 20
-4566.7715
  0
LWPOLYLINE
  5
9BA
330
1F
100
AcDbEntity
  8
0
  6
Continuous
 62
     7
100
AcDbPolyline
 90
        2
 70
     0
 43
0.0
 10
378583.5938
 20
-4566.7715
 10
378593.3125
 20
-4566.7715
  0
LWPOLYLINE
  5
9BE
330
1F
100
AcDbEntity
  8
0
  6
Continuous
 62
     7
100
AcDbPolyline
 90
        2
 70
     0
 43
0.0
 10
378603.0
 20
-4566.7715
 10
378612.6875
 20
-4566.7715
  0
LWPOLYLINE
  5
9C2
330
1F
100
AcDbEntity
  8
0
  6
Continuous
 62
     7
100
AcDbPolyline
 90
        2
 70
     0
 43
0.0
 10
378622.375
 20
-4566.7715
 10
378632.0938
 20
-4566.7715
  0
LWPOLYLINE
  5
9C6
330
1F
100
AcDbEntity
  8
0
  6
Continuous
 62
     7
100
AcDbPolyline
 90
        2
 70
     0
 43
0.0
 10
378567.1875
 20
-4583.5713
 10
378573.875
 20
-4583.5713
  0
LWPOLYLINE
  5
9CA
330
1F
100
AcDbEntity
  8
0
  6
Continuous
 62
     7
100
AcDbPolyline
 90
        2
 70
     0
 43
0.0
 10
378583.5938
 20
-4583.5713
 10
378593.3125
 20
-4583.5713
  0
LWPOLYLINE
  5
9CE
330
1F
100
AcDbEntity
  8
0
  6
Continuous
 62
     7
100
AcDbPolyline
 90
        2
 70
     0
 43
0.0
 10
378603.0
 20
-4583.5713
 10
378612.6875
 20
-4583.5713
  0
LWPOLYLINE
  5
9D2
330
1F
100
AcDbEntity
  8
0
  6
Continuous
 62
     7
100
AcDbPolyline
 90
        2
 70
     0
 43
0.0
 10
378622.375
 20
-4583.5713
 10
378632.0938
 20
-4583.5713
  0
LWPOLYLINE
  5
9D6
330
1F
100
AcDbEntity
  8
0
  6
Continuous
 62
     7
100
AcDbPolyline
 90
        2
 70
     0
 43
0.0
 10
378610.875
 20
-4596.751
 10
378608.125
 20
-4591.9707
  0
LWPOLYLINE
  5
9DA
330
1F
100
AcDbEntity
  8
0
  6
Continuous
 62
     7
100
AcDbPolyline
 90
        2
 70
     0
 43
0.0
 10
378603.25
 20
-4583.5713
 10
378598.4375
 20
-4575.1709
  0
LWPOLYLINE
  5
9DE
330
1F
100
AcDbEntity
  8
0
  6
Continuous
 62
     7
100
AcDbPolyline
 90
        2
 70
     0
 43
0.0
 10
378593.5625
 20
-4566.7715
 10
378588.7188
 20
-4558.3721
  0
LWPOLYLINE
  5
9E2
330
1F
100
AcDbEntity
  8
0
  6
Continuous
 62
     7
100
AcDbPolyline
 90
        2
 70
     0
 43
0.0
 10
378583.875
 20
-4549.9727
 10
378579.0
 20
-4541.5728
  0
LWPOLYLINE
  5
9E6
330
1F
100
AcDbEntity
  8
0
  6
Continuous
 62
     7
100
AcDbPolyline
 90
        2
 70
     0
 43
0.0
 10
378574.1875
 20
-4533.1729
 10
378569.3125
 20
-4524.7734
  0
LWPOLYLINE
  5
9EA
330
1F
100
AcDbEntity
  8
0
  6
Continuous
 62
     7
100
AcDbPolyline
 90
        2
 70
     0
 43
0.0
 10
378588.7188
 20
-4591.9722
 10
378583.875
 20
-4583.5723
  0
LWPOLYLINE
  5
9EE
330
1F
100
AcDbEntity
  8
0
  6
Continuous
 62
     7
100
AcDbPolyline
 90
        2
 70
     0
 43
0.0
 10
378579.0
 20
-4575.1729
 10
378574.1875
 20
-4566.7729
  0
LWPOLYLINE
  5
9F2
330
1F
100
AcDbEntity
  8
0
  6
Continuous
 62
     7
100
AcDbPolyline
 90
        2
 70
     0
 43
0.0
 10
378569.3125
 20
-4558.373
 10
378564.4688
 20
-4549.9736
  0
LWPOLYLINE
  5
9F6
330
1F
100
AcDbEntity
  8
0
  6
Continuous
 62
     7
100
AcDbPolyline
 90
        2
 70
     0
 43
0.0
 10
378559.625
 20
-4541.5732
 10
378556.375
 20
-4535.9863
  0
LWPOLYLINE
  5
9FA
330
1F
100
AcDbEntity
  8
0
  6
Continuous
 62
     7
100
AcDbPolyline
 90
        2
 70
     0
 43
0.0
 10
378627.5
 20
-4591.9746
 10
378622.6875
 20
-4583.5742
  0
LWPOLYLINE
  5
9FE
330
1F
100
AcDbEntity
  8
0
  6
Continuous
 62
     7
100
AcDbPolyline
 90
        2
 70
     0
 43
0.0
 10
378617.8125
 20
-4575.1748
 10
378612.9688
 20
-4566.7744
  0
LWPOLYLINE
  5
A02
330
1F
100
AcDbEntity
  8
0
  6
Continuous
 62
     7
100
AcDbPolyline
 90
        2
 70
     0
 43
0.0
 10
378608.125
 20
-4558.3745
 10
378603.25
 20
-4549.9746
  0
LWPOLYLINE
  5
A06
330
1F
100
AcDbEntity
  8
0
  6
Continuous
 62
     7
100
AcDbPolyline
 90
        2
 70
     0
 43
0.0
 10
378598.4375
 20
-4541.5742
 10
378593.5625
 20
-4533.1748
  0
LWPOLYLINE
  5
A0A
330
1F
100
AcDbEntity
  8
0
  6
Continuous
 62
     7
100
AcDbPolyline
 90
        2
 70
     0
 43
0.0
 10
378588.7188
 20
-4524.7744
 10
378583.875
 20
-4516.374
  0
LWPOLYLINE
  5
A0E
330
1F
100
AcDbEntity
  8
0
  6
Continuous
 62
     7
100
AcDbPolyline
 90
        2
 70
     0
 43
0.0
 10
378579.0
 20
-4507.9746
 10
378579.0
 20
-4507.9639
  0
LWPOLYLINE
  5
A12
330
1F
100
AcDbEntity
  8
0
  6
Continuous
 62
     7
100
AcDbPolyline
 90
        2
 70
     0
 43
0.0
 10
378632.375
 20
-4566.7656
 10
378627.5313
 20
-4558.3662
  0
LWPOLYLINE
  5
A16
330
1F
100
AcDbEntity
  8
0
  6
Continuous
 62
     7
100
AcDbPolyline
 90
        2
 70
     0
 43
0.0
 10
378622.6875
 20
-4549.9658
 10
378617.8438
 20
-4541.5654
  0
LWPOLYLINE
  5
A1A
330
1F
100
AcDbEntity
  8
0
  6
Continuous
 62
     7
100
AcDbPolyline
 90
        2
 70
     0
 43
0.0
 10
378613.0
 20
-4533.166
 10
378608.125
 20
-4524.7656
  0
LWPOLYLINE
  5
A1E
330
1F
100
AcDbEntity
  8
0
  6
Continuous
 62
     7
100
AcDbPolyline
 90
        2
 70
     0
 43
0.0
 10
378603.2813
 20
-4516.3652
 10
378598.4375
 20
-4507.9658
  0
LWPOLYLINE
  5
A22
330
1F
100
AcDbEntity
  8
0
  6
Continuous
 62
     7
100
AcDbPolyline
 90
        2
 70
     0
 43
0.0
 10
378637.0313
 20
-4541.2285
 10
378632.375
 20
-4533.1689
  0
LWPOLYLINE
  5
A26
330
1F
100
AcDbEntity
  8
0
  6
Continuous
 62
     7
100
AcDbPolyline
 90
        2
 70
     0
 43
0.0
 10
378627.5
 20
-4524.7686
 10
378622.6875
 20
-4516.3682
  0
LWPOLYLINE
  5
A2A
330
1F
100
AcDbEntity
  8
0
  6
Continuous
 62
     7
100
AcDbPolyline
 90
        2
 70
     0
 43
2.5
 10
378542.0625
 20
-4611.752
 10
378537.8125
 20
-4479.877
  0
LWPOLYLINE
  5
A2E
330
1F
100
AcDbEntity
  8
0
  6
Continuous
 62
     7
100
AcDbPolyline
 90
        2
 70
     0
 43
2.5
 10
378619.5313
 20
-4455.7334
 10
378614.375
 20
-4475.0518
  0
LWPOLYLINE
  5
A32
330
1F
100
AcDbEntity
  8
0
  6
Continuous
 62
     7
100
AcDbPolyline
 90
        2
 70
     0
 43
2.5
 10
378731.8125
 20
-4506.5225
 10
378614.375
 20
-4475.0518
  0
LWPOLYLINE
  5
A36
330
1F
100
AcDbEntity
  8
0
  6
Continuous
 62
     7
100
AcDbPolyline
 90
        2
 70
     0
 43
2.5
 10
378731.8125
 20
-4506.5225
 10
378737.0
 20
-4487.2031
  0
LWPOLYLINE
  5
A3A
330
1F
100
AcDbEntity
  8
0
  6
Continuous
 62
     7
100
AcDbPolyline
 90
        2
 70
     0
 43
2.5
 10
378737.0
 20
-4487.2031
 10
378619.5313
 20
-4455.7334
  0
LWPOLYLINE
  5
A3E
330
1F
100
AcDbEntity
  8
0
  6
Continuous
 62
     7
100
AcDbPolyline
 90
        2
 70
     0
 43
2.5
 10
378508.0313
 20
-4479.7891
 10
378508.0313
 20
-4611.752
  0
LWPOLYLINE
  5
A42
330
1F
100
AcDbEntity
  8
0
  6
Continuous
 62
     7
100
AcDbPolyline
 90
        2
 70
     0
 43
2.5
 10
378508.0313
 20
-4479.7891
 10
378632.0313
 20
-4479.7871
  0
LWPOLYLINE
  5
A46
330
1F
100
AcDbEntity
  8
0
  6
Continuous
 62
     7
100
AcDbPolyline
 90
        2
 70
     0
 43
2.5
 10
378664.9375
 20
-4488.5986
 10
378661.0
 20
-4611.752
  0
LWPOLYLINE
  5
A4A
330
1F
100
AcDbEntity
  8
0
  6
Continuous
 62
     7
100
AcDbPolyline
 90
        2
 70
     0
 43
2.5
 10
378698.0313
 20
-4611.75
 10
378698.0313
 20
-4497.4697
  0
LWPOLYLINE
  5
A4E
330
1F
100
AcDbEntity
  8
LAYER3
  6
Continuous
 62
     7
100
AcDbPolyline
 90
        2
 70
     0
 43
2.0
 10
378133.625
 20
-3792.6077
 10
378133.625
 20
-3925.0325
  0
LWPOLYLINE
  5
A52
330
1F
100
AcDbEntity
  8
LAYER3
  6
Continuous
 62
     7
100
AcDbPolyline
 90
        2
 70
     0
 43
2.0
 10
378186.3125
 20
-3789.6077
 10
378186.3125
 20
-3925.0325
  0
LWPOLYLINE
  5
A56
330
1F
100
AcDbEntity
  8
LAYER3
  6
Continuous
 62
     7
100
AcDbPolyline
 90
        2
 70
     0
 43
2.0
 10
377633.9375
 20
-4324.5332
 10
377633.9375
 20
-4185.9092
  0
LWPOLYLINE
  5
A5A
330
1F
100
AcDbEntity
  8
LAYER3
  6
Continuous
 62
     7
100
AcDbPolyline
 90
        2
 70
     0
 43
2.0
 10
377579.875
 20
-4324.5332
 10
377579.875
 20
-4185.8364
  0
LWPOLYLINE
  5
A5E
330
1F
100
AcDbEntity
  8
LAYER3
  6
Continuous
 62
     7
100
AcDbPolyline
 90
        2
 70
     0
 43
3.0
 10
378107.75
 20
-5214.0547
 10
378155.9063
 20
-5214.0547
  0
LWPOLYLINE
  5
A62
330
1F
100
AcDbEntity
  8
LAYER3
  6
Continuous
 62
     7
100
AcDbPolyline
 90
        2
 70
     0
 43
3.0
 10
377579.875
 20
-4391.5332
 10
377579.875
 20
-4340.1572
  0
LWPOLYLINE
  5
A66
330
1F
100
AcDbEntity
  8
LAYER3
  6
Continuous
 62
     7
100
AcDbPolyline
 90
        2
 70
     0
 43
2.0
 10
377579.875
 20
-4340.1572
 10
377579.875
 20
-4336.1572
  0
LWPOLYLINE
  5
A6A
330
1F
100
AcDbEntity
  8
LAYER3
  6
Continuous
 62
     7
100
AcDbPolyline
 90
        2
 70
     0
 43
2.0
 10
377579.875
 20
-4336.1572
 10
377579.875
 20
-4324.5332
  0
LWPOLYLINE
  5
A6E
330
1F
100
AcDbEntity
  8
LAYER3
  6
Continuous
 62
     7
100
AcDbPolyline
 90
        2
 70
     0
 43
3.0
 10
377633.9375
 20
-4390.9092
 10
377633.9375
 20
-4340.1572
  0
LWPOLYLINE
  5
A72
330
1F
100
AcDbEntity
  8
LAYER3
  6
Continuous
 62
     7
100
AcDbPolyline
 90
        2
 70
     0
 43
2.0
 10
377633.9375
 20
-4340.1572
 10
377633.9375
 20
-4335.1572
  0
LWPOLYLINE
  5
A76
330
1F
100
AcDbEntity
  8
LAYER3
  6
Continuous
 62
     7
100
AcDbPolyline
 90
        2
 70
     0
 43
2.0
 10
377633.9375
 20
-4335.1572
 10
377633.9375
 20
-4324.5332
  0
LWPOLYLINE
  5
A7A
330
1F
100
AcDbEntity
  8
LAYER3
  6
Continuous
 62
     7
100
AcDbPolyline
 90
        2
 70
     0
 43
3.0
 10
378155.9063
 20
-5160.0557
 10
378126.1875
 20
-5160.0557
  0
TEXT
  5
A7E
330
1F
100
AcDbEntity
  8
LAYER4
 62
     7
100
AcDbText
 10
377382.9375
 20
-4748.9092
 30
0.0
 40
24.999
  1
Aluminium Window Frame Detail
 41
0.7796520391621353
 72
     5
 11
377876.4375
 21
-4748.9092
 31
0.0
100
AcDbText
  0
TEXT
  5
A7F
330
1F
100
AcDbEntity
  8
LAYER4
 62
     7
100
AcDbText
 10
377955.4063
 20
-4007.533
 30
0.0
 40
24.9995
  1
Aluminium Window Frame Detail 
 41
0.7564879252556908
 72
     5
 11
378459.4063
 21
-4007.533
 31
0.0
100
AcDbText
  0
TEXT
  5
A80
330
1F
100
AcDbEntity
  8
LAYER4
 62
     7
100
AcDbText
 10
377873.4375
 20
-4048.5667
 30
0.0
 40
24.8318
  1
At Head - Single Leaf Reinforced Masonry 
 50
359.9999826392866
 41
0.6787880298896433
 72
     5
 11
378533.5
 21
-4048.5669
 31
0.0
100
AcDbText
  0
ARC
  5
A81
330
1F
100
AcDbEntity
  8
LAYER4
  6
Continuous
 62
     7
100
AcDbCircle
 10
378126.1875
 20
-5154.0566
 30
0.0
 40
6.0114
100
AcDbArc
 50
228.6849
 51
270.0
  0
LWPOLYLINE
  5
A82
330
1F
100
AcDbEntity
  8
LAYER4
  6
Continuous
 62
     7
100
AcDbPolyline
 90
        2
 70
     0
 43
3.0
 10
378122.2188
 20
-5158.5713
 10
378116.4688
 20
-5153.5342
  0
LWPOLYLINE
  5
A86
330
1F
100
AcDbEntity
  8
LAYER4
  6
Continuous
 62
     7
100
AcDbPolyline
 90
        2
 70
     0
 43
3.0
 10
378099.7188
 20
-5222.1055
 10
378102.5
 20
-5217.1289
  0
ARC
  5
A8A
330
1F
100
AcDbEntity
  8
LAYER4
  6
Continuous
 62
     7
100
AcDbCircle
 10
378107.75
 20
-5220.0547
 30
0.0
 40
5.9995
100
AcDbArc
 50
90.0
 51
150.8938
  0
LWPOLYLINE
  5
A8B
330
1F
100
AcDbEntity
  8
LAYER4
  6
Continuous
 62
     7
100
AcDbPolyline
 90
       41
 70
     0
 43
2.0
 10
378159.4063
 20
-5211.5342
 10
378160.0625
 20
-5211.4971
 10
378160.75
 20
-5211.3877
 10
378161.3438
 20
-5211.207
 10
378161.9063
 20
-5210.9609
 10
378162.4375
 20
-5210.6553
 10
378162.875
 20
-5210.2979
 10
378163.1875
 20
-5209.8965
 10
378163.4688
 20
-5209.4609
 10
378163.625
 20
-5209.0039
 10
378163.6875
 20
-5208.5342
 10
378163.625
 20
-5208.0649
 10
378163.4688
 20
-5207.6074
 10
378163.1875
 20
-5207.1724
 10
378162.875
 20
-5206.771
 10
378162.4375
 20
-5206.4131
 10
378161.9063
 20
-5206.1074
 10
378161.3438
 20
-5205.8613
 10
378160.75
 20
-5205.6812
 10
378160.0625
 20
-5205.5713
 10
378159.4063
 20
-5205.5342
 10
378158.75
 20
-5205.5713
 10
378158.0625
 20
-5205.6812
 10
378157.4688
 20
-5205.8613
 10
378156.9063
 20
-5206.1074
 10
378156.375
 20
-5206.4131
 10
378155.9375
 20
-5206.771
 10
378155.625
 20
-5207.1724
 10
378155.3438
 20
-5207.6074
 10
378155.1875
 20
-5208.0649
 10
378155.125
 20
-5208.5342
 10
378155.1875
 20
-5209.0039
 10
378155.3438
 20
-5209.4609
 10
378155.625
 20
-5209.8965
 10
378155.9375
 20
-5210.2979
 10
378156.375
 20
-5210.6553
 10
378156.9063
 20
-5210.9609
 10
378157.4688
 20
-5211.207
 10
378158.0625
 20
-5211.3877
 10
378158.75
 20
-5211.4971
 10
378159.4063
 20
-5211.5342
  0
TEXT
  5
AB6
330
1F
100
AcDbEntity
  8
LAYER4
 62
     7
100
AcDbText
 10
377728.4375
 20
-3622.5349
 30
0.0
 40
25.0
  1
Reinforced
 50
0.0007581997889674
 41
0.7388888889535838
 72
     5
 11
377894.6875
 21
-3622.5327
 31
0.0
100
AcDbText
  0
TEXT
  5
AB7
330
1F
100
AcDbEntity
  8
LAYER4
 62
     7
100
AcDbText
 10
377728.4375
 20
-3660.0347
 30
0.0
 40
25.0
  1
concrete lintel
 41
0.6515384615384615
 72
     5
 11
377940.1875
 21
-3660.0347
 31
0.0
100
AcDbText
  0
TEXT
  5
AB8
330
1F
100
AcDbEntity
  8
LAYER4
 62
     7
100
AcDbText
 10
378360.4375
 20
-3722.5347
 30
0.0
 40
25.0
  1
Masonry anchor
 41
0.7220190197512801
 72
     5
 11
378607.1875
 21
-3722.5347
 31
0.0
100
AcDbText
  0
TEXT
  5
AB9
330
1F
100
AcDbEntity
  8
LAYER4
 62
     7
100
AcDbText
 10
378370.4375
 20
-3828.533
 30
0.0
 40
25.0
  1
Aluminium window frame
 41
0.7892093945719693
 72
     5
 11
378748.4688
 21
-3828.533
 31
0.0
100
AcDbText
  0
LWPOLYLINE
  5
ABA
330
1F
100
AcDbEntity
  8
LAYER4
  6
Continuous
 62
     7
100
AcDbPolyline
 90
        3
 70
     0
 43
0.0
 10
378364.4375
 20
-3814.3792
 10
378291.8438
 20
-3814.3792
 10
378184.4688
 20
-3786.603
  0
LWPOLYLINE
  5
ABF
330
1F
100
AcDbEntity
  8
LAYER4
  6
Continuous
 62
     7
100
AcDbPolyline
 90
        4
 70
     0
 43
0.0
 10
378207.4063
 20
-3797.7017
 10
378184.4688
 20
-3786.603
 10
378209.9063
 20
-3788.0229
 10
378207.4063
 20
-3797.7017
  0
TEXT
  5
AC5
330
1F
100
AcDbEntity
  8
LAYER4
 62
     7
100
AcDbText
 10
377836.4688
 20
-3785.5327
 30
0.0
 40
25.0
  1
Sealant
 41
0.7485815235009836
 72
     5
 11
377951.9375
 21
-3785.5327
 31
0.0
100
AcDbText
  0
LWPOLYLINE
  5
AC6
330
1F
100
AcDbEntity
  8
LAYER4
  6
Continuous
 62
     7
100
AcDbPolyline
 90
        3
 70
     0
 43
0.0
 10
377951.4375
 20
-3772.533
 10
378035.4375
 20
-3772.533
 10
378127.4375
 20
-3745.533
  0
LWPOLYLINE
  5
ACB
330
1F
100
AcDbEntity
  8
LAYER4
  6
Continuous
 62
     7
100
AcDbPolyline
 90
        4
 70
     0
 43
0.0
 10
378102.0625
 20
-3747.7744
 10
378127.4375
 20
-3745.533
 10
378104.875
 20
-3757.3672
 10
378102.0625
 20
-3747.7744
  0
TEXT
  5
AD1
330
1F
100
AcDbEntity
  8
LAYER4
 62
     7
100
AcDbText
 10
378360.4375
 20
-3598.5349
 30
0.0
 40
24.9998
  1
External coating applied
 41
0.685893907216893
 72
     5
 11
378726.1875
 21
-3598.5349
 31
0.0
100
AcDbText
  0
TEXT
  5
AD2
330
1F
100
AcDbEntity
  8
LAYER4
 62
     7
100
AcDbText
 10
378360.4375
 20
-3636.0349
 30
0.0
 40
25.0
  1
before window is fitted
 50
0.0003125972177618
 41
0.6742497579964821
 72
     5
 11
378708.6875
 21
-3636.033
 31
0.0
100
AcDbText
  0
LWPOLYLINE
  5
AD3
330
1F
100
AcDbEntity
  8
LAYER4
  6
Continuous
 62
     7
100
AcDbPolyline
 90
        3
 70
     0
 43
0.0
 10
377945.4375
 20
-3647.533
 10
378016.4375
 20
-3647.533
 10
378129.4688
 20
-3634.5327
  0
LWPOLYLINE
  5
AD8
330
1F
100
AcDbEntity
  8
LAYER4
  6
Continuous
 62
     7
100
AcDbPolyline
 90
        4
 70
     0
 43
0.0
 10
378104.0625
 20
-3632.4233
 10
378129.4688
 20
-3634.5327
 10
378105.1875
 20
-3642.3552
 10
378104.0625
 20
-3632.4233
  0
LWPOLYLINE
  5
ADE
330
1F
100
AcDbEntity
  8
LAYER4
  6
Continuous
 62
     7
100
AcDbPolyline
 90
        3
 70
     0
 43
0.0
 10
378357.4375
 20
-3584.533
 10
378322.4375
 20
-3584.5327
 10
378237.4375
 20
-3626.5327
  0
LWPOLYLINE
  5
AE3
330
1F
100
AcDbEntity
  8
LAYER4
  6
Continuous
 62
     7
100
AcDbPolyline
 90
        4
 70
     0
 43
0.0
 10
378262.0625
 20
-3619.9429
 10
378237.4375
 20
-3626.5327
 10
378257.6563
 20
-3610.9797
 10
378262.0625
 20
-3619.9429
  0
LWPOLYLINE
  5
AE9
330
1F
100
AcDbEntity
  8
LAYER4
  6
Continuous
 62
     7
100
AcDbPolyline
 90
        3
 70
     0
 43
0.0
 10
378356.4375
 20
-3709.5327
 10
378292.4375
 20
-3709.5327
 10
378149.4688
 20
-3715.533
  0
LWPOLYLINE
  5
AEE
330
1F
100
AcDbEntity
  8
LAYER4
  6
Continuous
 62
     7
100
AcDbPolyline
 90
        4
 70
     0
 43
0.0
 10
378174.6563
 20
-3719.4792
 10
378149.4688
 20
-3715.533
 10
378174.25
 20
-3709.4907
 10
378174.6563
 20
-3719.4792
  0
TEXT
  5
AF4
330
1F
100
AcDbEntity
  8
LAYER4
 62
     7
100
AcDbText
 10
377312.0
 20
-4335.1572
 30
0.0
 40
25.0
  1
Sealant
 41
0.7487844408427877
 72
     5
 11
377427.5
 21
-4335.1572
 31
0.0
100
AcDbText
  0
TEXT
  5
AF5
330
1F
100
AcDbEntity
  8
LAYER4
 62
     7
100
AcDbText
 10
377858.0
 20
-4521.1572
 30
0.0
 40
25.0
  1
Sill unit
 50
0.0010197843655551
 41
0.6745655609283329
 72
     5
 11
377964.75
 21
-4521.1553
 31
0.0
100
AcDbText
  0
TEXT
  5
AF6
330
1F
100
AcDbEntity
  8
LAYER4
 62
     7
100
AcDbText
 10
377180.0
 20
-4463.1572
 30
0.0
 40
25.0
  1
Masonry anchor
 41
0.7220190197512801
 72
     5
 11
377426.75
 21
-4463.1572
 31
0.0
100
AcDbText
  0
TEXT
  5
AF7
330
1F
100
AcDbEntity
  8
LAYER4
 62
     7
100
AcDbText
 10
377782.0
 20
-4263.1563
 30
0.0
 40
25.0
  1
Aluminium window frame
 50
359.9999393695455
 41
0.7891440501048259
 72
     5
 11
378160.0
 21
-4263.1567
 31
0.0
100
AcDbText
  0
TEXT
  5
AF8
330
1F
100
AcDbEntity
  8
LAYER4
 62
     7
100
AcDbText
 10
377838.0
 20
-4319.1567
 30
0.0
 40
25.0
  1
Sill flap
 41
0.6784615384615384
 72
     5
 11
377948.25
 21
-4319.1567
 31
0.0
100
AcDbText
  0
LWPOLYLINE
  5
AF9
330
1F
100
AcDbEntity
  8
LAYER4
  6
Continuous
 62
     7
100
AcDbPolyline
 90
        2
 70
     0
 43
0.0
 10
377705.9375
 20
-4492.1563
 10
377705.3125
 20
-4492.1563
  0
LWPOLYLINE
  5
AFD
330
1F
100
AcDbEntity
  8
LAYER4
  6
Continuous
 62
     7
100
AcDbPolyline
 90
        2
 70
     0
 43
0.0
 10
377709.0
 20
-4495.2451
 10
377708.4063
 20
-4495.2451
  0
LWPOLYLINE
  5
B01
330
1F
100
AcDbEntity
  8
LAYER4
  6
Continuous
 62
     7
100
AcDbPolyline
 90
        2
 70
     0
 43
0.0
 10
377705.9375
 20
-4498.333
 10
377705.3125
 20
-4498.333
  0
LWPOLYLINE
  5
B05
330
1F
100
AcDbEntity
  8
LAYER4
  6
Continuous
 62
     7
100
AcDbPolyline
 90
        2
 70
     0
 43
0.0
 10
377709.0
 20
-4501.4209
 10
377708.4063
 20
-4501.4209
  0
LWPOLYLINE
  5
B09
330
1F
100
AcDbEntity
  8
LAYER4
  6
Continuous
 62
     7
100
AcDbPolyline
 90
        2
 70
     0
 43
0.0
 10
377705.9375
 20
-4504.5088
 10
377705.3125
 20
-4504.5088
  0
LWPOLYLINE
  5
B0D
330
1F
100
AcDbEntity
  8
LAYER4
  6
Continuous
 62
     7
100
AcDbPolyline
 90
        2
 70
     0
 43
0.0
 10
377709.0313
 20
-4507.5967
 10
377708.4375
 20
-4507.5967
  0
LWPOLYLINE
  5
B11
330
1F
100
AcDbEntity
  8
LAYER4
  6
Continuous
 62
     7
100
AcDbPolyline
 90
        2
 70
     0
 43
0.0
 10
377705.9375
 20
-4510.6851
 10
377705.3125
 20
-4510.6851
  0
LWPOLYLINE
  5
B15
330
1F
100
AcDbEntity
  8
LAYER4
  6
Continuous
 62
     7
100
AcDbPolyline
 90
        2
 70
     0
 43
0.0
 10
377709.0313
 20
-4513.7734
 10
377708.4375
 20
-4513.7734
  0
LWPOLYLINE
  5
B19
330
1F
100
AcDbEntity
  8
LAYER4
  6
Continuous
 62
     7
100
AcDbPolyline
 90
        2
 70
     0
 43
0.0
 10
377705.9375
 20
-4516.8613
 10
377705.3125
 20
-4516.8613
  0
LWPOLYLINE
  5
B1D
330
1F
100
AcDbEntity
  8
LAYER4
  6
Continuous
 62
     7
100
AcDbPolyline
 90
        2
 70
     0
 43
0.0
 10
377709.0313
 20
-4519.9492
 10
377708.4375
 20
-4519.9492
  0
LWPOLYLINE
  5
B21
330
1F
100
AcDbEntity
  8
LAYER4
  6
Continuous
 62
     7
100
AcDbPolyline
 90
        2
 70
     0
 43
0.0
 10
377705.9375
 20
-4523.0371
 10
377705.3125
 20
-4523.0371
  0
LWPOLYLINE
  5
B25
330
1F
100
AcDbEntity
  8
LAYER4
  6
Continuous
 62
     7
100
AcDbPolyline
 90
        2
 70
     0
 43
0.0
 10
377709.0313
 20
-4526.125
 10
377708.4375
 20
-4526.125
  0
LWPOLYLINE
  5
B29
330
1F
100
AcDbEntity
  8
LAYER4
  6
Continuous
 62
     7
100
AcDbPolyline
 90
        2
 70
     0
 43
0.0
 10
377705.9375
 20
-4529.2129
 10
377705.375
 20
-4529.2129
  0
LWPOLYLINE
  5
B2D
330
1F
100
AcDbEntity
  8
LAYER4
  6
Continuous
 62
     7
100
AcDbPolyline
 90
        2
 70
     0
 43
0.0
 10
377709.0313
 20
-4532.3018
 10
377708.4375
 20
-4532.3018
  0
LWPOLYLINE
  5
B31
330
1F
100
AcDbEntity
  8
LAYER4
  6
Continuous
 62
     7
100
AcDbPolyline
 90
        2
 70
     0
 43
0.0
 10
377705.9375
 20
-4535.3896
 10
377705.4375
 20
-4535.3896
  0
LWPOLYLINE
  5
B35
330
1F
100
AcDbEntity
  8
LAYER4
  6
Continuous
 62
     7
100
AcDbPolyline
 90
        2
 70
     0
 43
0.0
 10
377709.0313
 20
-4538.4775
 10
377708.4375
 20
-4538.4775
  0
LWPOLYLINE
  5
B39
330
1F
100
AcDbEntity
  8
LAYER4
  6
Continuous
 62
     7
100
AcDbPolyline
 90
        2
 70
     0
 43
0.0
 10
377705.9375
 20
-4541.5654
 10
377705.5
 20
-4541.5654
  0
LWPOLYLINE
  5
B3D
330
1F
100
AcDbEntity
  8
LAYER4
  6
Continuous
 62
     7
100
AcDbPolyline
 90
        2
 70
     0
 43
0.0
 10
377709.0313
 20
-4544.6533
 10
377708.4375
 20
-4544.6533
  0
LWPOLYLINE
  5
B41
330
1F
100
AcDbEntity
  8
LAYER4
  6
Continuous
 62
     7
100
AcDbPolyline
 90
        2
 70
     0
 43
0.0
 10
377705.9375
 20
-4547.7412
 10
377705.5
 20
-4547.7412
  0
LWPOLYLINE
  5
B45
330
1F
100
AcDbEntity
  8
LAYER4
  6
Continuous
 62
     7
100
AcDbPolyline
 90
        2
 70
     0
 43
0.0
 10
377709.0313
 20
-4550.8301
 10
377708.4375
 20
-4550.8301
  0
LWPOLYLINE
  5
B49
330
1F
100
AcDbEntity
  8
LAYER4
  6
Continuous
 62
     7
100
AcDbPolyline
 90
        2
 70
     0
 43
0.0
 10
377705.9375
 20
-4553.918
 10
377705.5625
 20
-4553.918
  0
LWPOLYLINE
  5
B4D
330
1F
100
AcDbEntity
  8
LAYER4
  6
Continuous
 62
     7
100
AcDbPolyline
 90
        2
 70
     0
 43
0.0
 10
377709.0313
 20
-4557.0059
 10
377708.4375
 20
-4557.0059
  0
LWPOLYLINE
  5
B51
330
1F
100
AcDbEntity
  8
LAYER4
  6
Continuous
 62
     7
100
AcDbPolyline
 90
        2
 70
     0
 43
0.0
 10
377705.9375
 20
-4560.0938
 10
377705.625
 20
-4560.0938
  0
LWPOLYLINE
  5
B55
330
1F
100
AcDbEntity
  8
LAYER4
  6
Continuous
 62
     7
100
AcDbPolyline
 90
        2
 70
     0
 43
0.0
 10
377709.0313
 20
-4563.1816
 10
377708.4375
 20
-4563.1816
  0
LWPOLYLINE
  5
B59
330
1F
100
AcDbEntity
  8
LAYER4
  6
Continuous
 62
     7
100
AcDbPolyline
 90
        2
 70
     0
 43
0.0
 10
377705.9375
 20
-4566.2695
 10
377705.6563
 20
-4566.2695
  0
LWPOLYLINE
  5
B5D
330
1F
100
AcDbEntity
  8
LAYER4
  6
Continuous
 62
     7
100
AcDbPolyline
 90
        2
 70
     0
 43
0.0
 10
377709.0313
 20
-4569.3584
 10
377708.4375
 20
-4569.3584
  0
LWPOLYLINE
  5
B61
330
1F
100
AcDbEntity
  8
LAYER4
  6
Continuous
 62
     7
100
AcDbPolyline
 90
        2
 70
     0
 43
0.0
 10
377705.9375
 20
-4572.4463
 10
377705.6875
 20
-4572.4463
  0
LWPOLYLINE
  5
B65
330
1F
100
AcDbEntity
  8
LAYER4
  6
Continuous
 62
     7
100
AcDbPolyline
 90
        2
 70
     0
 43
0.0
 10
377709.0313
 20
-4575.5342
 10
377708.4375
 20
-4575.5342
  0
LWPOLYLINE
  5
B69
330
1F
100
AcDbEntity
  8
LAYER4
  6
Continuous
 62
     7
100
AcDbPolyline
 90
        2
 70
     0
 43
0.0
 10
377705.9375
 20
-4578.6221
 10
377705.75
 20
-4578.6221
  0
LWPOLYLINE
  5
B6D
330
1F
100
AcDbEntity
  8
LAYER4
  6
Continuous
 62
     7
100
AcDbPolyline
 90
        2
 70
     0
 43
0.0
 10
377709.0313
 20
-4581.7104
 10
377708.4375
 20
-4581.7104
  0
LWPOLYLINE
  5
B71
330
1F
100
AcDbEntity
  8
LAYER4
  6
Continuous
 62
     7
100
AcDbPolyline
 90
        2
 70
     0
 43
0.0
 10
377705.9375
 20
-4584.7988
 10
377705.7813
 20
-4584.7988
  0
LWPOLYLINE
  5
B75
330
1F
100
AcDbEntity
  8
LAYER4
  6
Continuous
 62
     7
100
AcDbPolyline
 90
        2
 70
     0
 43
0.0
 10
377709.0313
 20
-4587.8867
 10
377708.4375
 20
-4587.8867
  0
LWPOLYLINE
  5
B79
330
1F
100
AcDbEntity
  8
LAYER4
  6
Continuous
 62
     7
100
AcDbPolyline
 90
        2
 70
     0
 43
0.0
 10
377705.9375
 20
-4590.9746
 10
377705.8438
 20
-4590.9746
  0
LWPOLYLINE
  5
B7D
330
1F
100
AcDbEntity
  8
LAYER4
  6
Continuous
 62
     7
100
AcDbPolyline
 90
        2
 70
     0
 43
0.0
 10
377709.0313
 20
-4594.0625
 10
377708.4375
 20
-4594.0625
  0
LWPOLYLINE
  5
B81
330
1F
100
AcDbEntity
  8
LAYER4
  6
Continuous
 62
     7
100
AcDbPolyline
 90
        2
 70
     0
 43
0.0
 10
377705.9375
 20
-4597.1504
 10
377705.875
 20
-4597.1504
  0
LWPOLYLINE
  5
B85
330
1F
100
AcDbEntity
  8
LAYER4
  6
Continuous
 62
     7
100
AcDbPolyline
 90
        2
 70
     0
 43
0.0
 10
377709.0313
 20
-4600.2383
 10
377708.4375
 20
-4600.2383
  0
LWPOLYLINE
  5
B89
330
1F
100
AcDbEntity
  8
LAYER4
  6
Continuous
 62
     7
100
AcDbPolyline
 90
        2
 70
     0
 43
0.0
 10
377705.9375
 20
-4603.3271
 10
377705.9375
 20
-4603.3271
  0
LWPOLYLINE
  5
B8D
330
1F
100
AcDbEntity
  8
LAYER4
  6
Continuous
 62
     7
100
AcDbPolyline
 90
        2
 70
     0
 43
0.0
 10
377709.0313
 20
-4606.415
 10
377708.4375
 20
-4606.415
  0
LWPOLYLINE
  5
B91
330
1F
100
AcDbEntity
  8
LAYER4
  6
Continuous
 62
     7
100
AcDbPolyline
 90
        2
 70
     0
 43
0.0
 10
377709.0313
 20
-4612.5908
 10
377708.4375
 20
-4612.5908
  0
LWPOLYLINE
  5
B95
330
1F
100
AcDbEntity
  8
LAYER4
  6
Continuous
 62
     7
100
AcDbPolyline
 90
        2
 70
     0
 43
0.0
 10
377709.0
 20
-4489.0684
 10
377708.4063
 20
-4489.0684
  0
LWPOLYLINE
  5
B99
330
1F
100
AcDbEntity
  8
LAYER4
  6
Continuous
 62
     7
100
AcDbPolyline
 90
        2
 70
     0
 43
0.0
 10
377705.9375
 20
-4485.9805
 10
377705.3125
 20
-4485.9805
  0
LWPOLYLINE
  5
B9D
330
1F
100
AcDbEntity
  8
LAYER4
  6
Continuous
 62
     7
100
AcDbPolyline
 90
        2
 70
     0
 43
0.0
 10
377709.0
 20
-4482.8926
 10
377708.4063
 20
-4482.8926
  0
LWPOLYLINE
  5
BA1
330
1F
100
AcDbEntity
  8
LAYER4
  6
Continuous
 62
     7
100
AcDbPolyline
 90
        2
 70
     0
 43
0.0
 10
377761.5313
 20
-4479.8047
 10
377760.9375
 20
-4479.8047
  0
LWPOLYLINE
  5
BA5
330
1F
100
AcDbEntity
  8
LAYER4
  6
Continuous
 62
     7
100
AcDbPolyline
 90
        2
 70
     0
 43
0.0
 10
377755.375
 20
-4479.8047
 10
377754.75
 20
-4479.8047
  0
LWPOLYLINE
  5
BA9
330
1F
100
AcDbEntity
  8
LAYER4
  6
Continuous
 62
     7
100
AcDbPolyline
 90
        2
 70
     0
 43
0.0
 10
377749.1875
 20
-4479.8047
 10
377748.5625
 20
-4479.8047
  0
LWPOLYLINE
  5
BAD
330
1F
100
AcDbEntity
  8
LAYER4
  6
Continuous
 62
     7
100
AcDbPolyline
 90
        2
 70
     0
 43
0.0
 10
377743.0
 20
-4479.8047
 10
377742.375
 20
-4479.8047
  0
LWPOLYLINE
  5
BB1
330
1F
100
AcDbEntity
  8
LAYER4
  6
Continuous
 62
     7
100
AcDbPolyline
 90
        2
 70
     0
 43
0.0
 10
377730.625
 20
-4479.8047
 10
377730.0
 20
-4479.8047
  0
LWPOLYLINE
  5
BB5
330
1F
100
AcDbEntity
  8
LAYER4
  6
Continuous
 62
     7
100
AcDbPolyline
 90
        2
 70
     0
 43
0.0
 10
377724.4375
 20
-4479.8047
 10
377723.8438
 20
-4479.8047
  0
LWPOLYLINE
  5
BB9
330
1F
100
AcDbEntity
  8
LAYER4
  6
Continuous
 62
     7
100
AcDbPolyline
 90
        2
 70
     0
 43
0.0
 10
377718.2813
 20
-4479.8047
 10
377717.6875
 20
-4479.8047
  0
LWPOLYLINE
  5
BBD
330
1F
100
AcDbEntity
  8
LAYER4
  6
Continuous
 62
     7
100
AcDbPolyline
 90
        2
 70
     0
 43
0.0
 10
377712.125
 20
-4479.8047
 10
377711.5
 20
-4479.8047
  0
LWPOLYLINE
  5
BC1
330
1F
100
AcDbEntity
  8
LAYER4
  6
Continuous
 62
     7
100
AcDbPolyline
 90
        2
 70
     0
 43
0.0
 10
377705.9375
 20
-4479.8047
 10
377705.3125
 20
-4479.8047
  0
LWPOLYLINE
  5
BC5
330
1F
100
AcDbEntity
  8
LAYER4
  6
Continuous
 62
     7
100
AcDbPolyline
 90
        2
 70
     0
 43
0.0
 10
377758.4375
 20
-4476.7163
 10
377757.8125
 20
-4476.7163
  0
LWPOLYLINE
  5
BC9
330
1F
100
AcDbEntity
  8
LAYER4
  6
Continuous
 62
     7
100
AcDbPolyline
 90
        2
 70
     0
 43
0.0
 10
377752.25
 20
-4476.7163
 10
377751.6563
 20
-4476.7163
  0
LWPOLYLINE
  5
BCD
330
1F
100
AcDbEntity
  8
LAYER4
  6
Continuous
 62
     7
100
AcDbPolyline
 90
        2
 70
     0
 43
0.0
 10
377746.0938
 20
-4476.7163
 10
377745.5
 20
-4476.7163
  0
LWPOLYLINE
  5
BD1
330
1F
100
AcDbEntity
  8
LAYER4
  6
Continuous
 62
     7
100
AcDbPolyline
 90
        2
 70
     0
 43
0.0
 10
377739.9375
 20
-4476.7163
 10
377739.3125
 20
-4476.7163
  0
LWPOLYLINE
  5
BD5
330
1F
100
AcDbEntity
  8
LAYER4
  6
Continuous
 62
     7
100
AcDbPolyline
 90
        2
 70
     0
 43
0.0
 10
377733.75
 20
-4476.7163
 10
377733.125
 20
-4476.7163
  0
LWPOLYLINE
  5
BD9
330
1F
100
AcDbEntity
  8
LAYER4
  6
Continuous
 62
     7
100
AcDbPolyline
 90
        2
 70
     0
 43
0.0
 10
377727.5625
 20
-4476.7163
 10
377726.9375
 20
-4476.7163
  0
LWPOLYLINE
  5
BDD
330
1F
100
AcDbEntity
  8
LAYER4
  6
Continuous
 62
     7
100
AcDbPolyline
 90
        2
 70
     0
 43
0.0
 10
377721.375
 20
-4476.7163
 10
377720.7813
 20
-4476.7163
  0
LWPOLYLINE
  5
BE1
330
1F
100
AcDbEntity
  8
LAYER4
  6
Continuous
 62
     7
100
AcDbPolyline
 90
        2
 70
     0
 43
0.0
 10
377715.2188
 20
-4476.7163
 10
377714.5938
 20
-4476.7163
  0
LWPOLYLINE
  5
BE5
330
1F
100
AcDbEntity
  8
LAYER4
  6
Continuous
 62
     7
100
AcDbPolyline
 90
        2
 70
     0
 43
0.0
 10
377709.0313
 20
-4476.7163
 10
377708.4375
 20
-4476.7163
  0
LWPOLYLINE
  5
BE9
330
1F
100
AcDbEntity
  8
LAYER4
  6
Continuous
 62
     7
100
AcDbPolyline
 90
        2
 70
     0
 43
0.0
 10
377761.5313
 20
-4473.6279
 10
377760.9375
 20
-4473.6279
  0
LWPOLYLINE
  5
BED
330
1F
100
AcDbEntity
  8
LAYER4
  6
Continuous
 62
     7
100
AcDbPolyline
 90
        2
 70
     0
 43
0.0
 10
377736.8125
 20
-4473.6279
 10
377736.1875
 20
-4473.6279
  0
LWPOLYLINE
  5
BF1
330
1F
100
AcDbEntity
  8
LAYER4
  6
Continuous
 62
     7
100
AcDbPolyline
 90
        2
 70
     0
 43
0.0
 10
377758.4375
 20
-4470.54
 10
377757.8125
 20
-4470.54
  0
LWPOLYLINE
  5
BF5
330
1F
100
AcDbEntity
  8
LAYER4
  6
Continuous
 62
     7
100
AcDbPolyline
 90
        2
 70
     0
 43
0.0
 10
377733.7188
 20
-4470.54
 10
377733.3125
 20
-4470.54
  0
LWPOLYLINE
  5
BF9
330
1F
100
AcDbEntity
  8
LAYER4
  6
Continuous
 62
     7
100
AcDbPolyline
 90
        2
 70
     0
 43
0.0
 10
377761.5313
 20
-4467.4521
 10
377760.9375
 20
-4467.4521
  0
LWPOLYLINE
  5
BFD
330
1F
100
AcDbEntity
  8
LAYER4
  6
Continuous
 62
     7
100
AcDbPolyline
 90
        2
 70
     0
 43
0.0
 10
377758.4375
 20
-4464.3643
 10
377757.8125
 20
-4464.3643
  0
LWPOLYLINE
  5
C01
330
1F
100
AcDbEntity
  8
LAYER4
  6
Continuous
 62
     7
100
AcDbPolyline
 90
        2
 70
     0
 43
0.0
 10
377761.5313
 20
-4461.2764
 10
377760.9375
 20
-4461.2764
  0
LWPOLYLINE
  5
C05
330
1F
100
AcDbEntity
  8
LAYER4
  6
Continuous
 62
     7
100
AcDbPolyline
 90
        2
 70
     0
 43
0.0
 10
377758.4375
 20
-4458.188
 10
377757.8125
 20
-4458.188
  0
LWPOLYLINE
  5
C09
330
1F
100
AcDbEntity
  8
LAYER4
  6
Continuous
 62
     7
100
AcDbPolyline
 90
        2
 70
     0
 43
0.0
 10
377761.5313
 20
-4455.0996
 10
377760.9375
 20
-4455.0996
  0
LWPOLYLINE
  5
C0D
330
1F
100
AcDbEntity
  8
LAYER4
  6
Continuous
 62
     7
100
AcDbPolyline
 90
        2
 70
     0
 43
0.0
 10
377758.4375
 20
-4452.0117
 10
377757.8125
 20
-4452.0117
  0
LWPOLYLINE
  5
C11
330
1F
100
AcDbEntity
  8
LAYER4
  6
Continuous
 62
     7
100
AcDbPolyline
 90
        2
 70
     0
 43
0.0
 10
377761.5
 20
-4448.9238
 10
377760.9063
 20
-4448.9238
  0
LWPOLYLINE
  5
C15
330
1F
100
AcDbEntity
  8
LAYER4
  6
Continuous
 62
     7
100
AcDbPolyline
 90
        2
 70
     0
 43
0.0
 10
377758.4375
 20
-4445.8359
 10
377757.8125
 20
-4445.8359
  0
LWPOLYLINE
  5
C19
330
1F
100
AcDbEntity
  8
LAYER4
  6
Continuous
 62
     7
100
AcDbPolyline
 90
        2
 70
     0
 43
0.0
 10
377761.5
 20
-4442.748
 10
377760.9063
 20
-4442.748
  0
LWPOLYLINE
  5
C1D
330
1F
100
AcDbEntity
  8
LAYER4
  6
Continuous
 62
     7
100
AcDbPolyline
 90
        2
 70
     0
 43
0.0
 10
377758.4375
 20
-4439.6592
 10
377757.8125
 20
-4439.6592
  0
LWPOLYLINE
  5
C21
330
1F
100
AcDbEntity
  8
LAYER4
  6
Continuous
 62
     7
100
AcDbPolyline
 90
        2
 70
     0
 43
0.0
 10
377761.5
 20
-4436.5713
 10
377760.9063
 20
-4436.5713
  0
LWPOLYLINE
  5
C25
330
1F
100
AcDbEntity
  8
LAYER4
  6
Continuous
 62
     7
100
AcDbPolyline
 90
        2
 70
     0
 43
0.0
 10
377758.4375
 20
-4433.4834
 10
377757.8125
 20
-4433.4834
  0
LWPOLYLINE
  5
C29
330
1F
100
AcDbEntity
  8
LAYER4
  6
Continuous
 62
     7
100
AcDbPolyline
 90
        2
 70
     0
 43
0.0
 10
377761.5
 20
-4430.3955
 10
377760.9063
 20
-4430.3955
  0
LWPOLYLINE
  5
C2D
330
1F
100
AcDbEntity
  8
LAYER4
  6
Continuous
 62
     7
100
AcDbPolyline
 90
        2
 70
     0
 43
0.0
 10
377758.4375
 20
-4427.3076
 10
377757.8125
 20
-4427.3076
  0
LWPOLYLINE
  5
C31
330
1F
100
AcDbEntity
  8
LAYER4
  6
Continuous
 62
     7
100
AcDbPolyline
 90
        2
 70
     0
 43
0.0
 10
377761.5
 20
-4424.2197
 10
377760.9063
 20
-4424.2197
  0
LWPOLYLINE
  5
C35
330
1F
100
AcDbEntity
  8
LAYER4
  6
Continuous
 62
     7
100
AcDbPolyline
 90
        2
 70
     0
 43
0.0
 10
377758.4375
 20
-4421.1313
 10
377757.8125
 20
-4421.1313
  0
LWPOLYLINE
  5
C39
330
1F
100
AcDbEntity
  8
LAYER4
  6
Continuous
 62
     7
100
AcDbPolyline
 90
        2
 70
     0
 43
0.0
 10
377752.25
 20
-4421.1313
 10
377751.625
 20
-4421.1313
  0
LWPOLYLINE
  5
C3D
330
1F
100
AcDbEntity
  8
LAYER4
  6
Continuous
 62
     7
100
AcDbPolyline
 90
        2
 70
     0
 43
0.0
 10
377746.0625
 20
-4421.1313
 10
377745.4375
 20
-4421.1313
  0
LWPOLYLINE
  5
C41
330
1F
100
AcDbEntity
  8
LAYER4
  6
Continuous
 62
     7
100
AcDbPolyline
 90
        2
 70
     0
 43
0.0
 10
377739.9063
 20
-4421.1313
 10
377739.2813
 20
-4421.1313
  0
LWPOLYLINE
  5
C45
330
1F
100
AcDbEntity
  8
LAYER4
  6
Continuous
 62
     7
100
AcDbPolyline
 90
        2
 70
     0
 43
0.0
 10
377749.1563
 20
-4418.043
 10
377748.5625
 20
-4418.043
  0
LWPOLYLINE
  5
C49
330
1F
100
AcDbEntity
  8
LAYER4
  6
Continuous
 62
     7
100
AcDbPolyline
 90
        2
 70
     0
 43
0.0
 10
377743.0
 20
-4418.043
 10
377742.375
 20
-4418.043
  0
LWPOLYLINE
  5
C4D
330
1F
100
AcDbEntity
  8
LAYER4
  6
Continuous
 62
     7
100
AcDbPolyline
 90
        2
 70
     0
 43
0.0
 10
377736.8125
 20
-4418.043
 10
377736.1875
 20
-4418.043
  0
LWPOLYLINE
  5
C51
330
1F
100
AcDbEntity
  8
LAYER4
  6
Continuous
 62
     7
100
AcDbPolyline
 90
        2
 70
     0
 43
0.0
 10
377730.625
 20
-4418.043
 10
377730.0
 20
-4418.043
  0
LWPOLYLINE
  5
C55
330
1F
100
AcDbEntity
  8
LAYER4
  6
Continuous
 62
     7
100
AcDbPolyline
 90
        2
 70
     0
 43
0.0
 10
377724.4375
 20
-4418.043
 10
377723.8438
 20
-4418.043
  0
LWPOLYLINE
  5
C59
330
1F
100
AcDbEntity
  8
LAYER4
  6
Continuous
 62
     7
100
AcDbPolyline
 90
        2
 70
     0
 43
0.0
 10
377727.5625
 20
-4414.9551
 10
377726.9375
 20
-4414.9551
  0
LWPOLYLINE
  5
C5D
330
1F
100
AcDbEntity
  8
LAYER4
  6
Continuous
 62
     7
100
AcDbPolyline
 90
        2
 70
     0
 43
0.0
 10
377721.375
 20
-4414.9551
 10
377720.75
 20
-4414.9551
  0
LWPOLYLINE
  5
C61
330
1F
100
AcDbEntity
  8
LAYER4
  6
Continuous
 62
     7
100
AcDbPolyline
 90
        2
 70
     0
 43
0.0
 10
377715.1875
 20
-4414.9551
 10
377714.5625
 20
-4414.9551
  0
LWPOLYLINE
  5
C65
330
1F
100
AcDbEntity
  8
LAYER4
  6
Continuous
 62
     7
100
AcDbPolyline
 90
        2
 70
     0
 43
0.0
 10
377709.0
 20
-4414.9551
 10
377708.4063
 20
-4414.9551
  0
LWPOLYLINE
  5
C69
330
1F
100
AcDbEntity
  8
LAYER4
  6
Continuous
 62
     7
100
AcDbPolyline
 90
        2
 70
     0
 43
0.0
 10
377702.8438
 20
-4414.9551
 10
377702.25
 20
-4414.9551
  0
LWPOLYLINE
  5
C6D
330
1F
100
AcDbEntity
  8
LAYER4
  6
Continuous
 62
     7
100
AcDbPolyline
 90
        2
 70
     0
 43
0.0
 10
377712.125
 20
-4411.8672
 10
377711.5
 20
-4411.8672
  0
LWPOLYLINE
  5
C71
330
1F
100
AcDbEntity
  8
LAYER4
  6
Continuous
 62
     7
100
AcDbPolyline
 90
        2
 70
     0
 43
0.0
 10
377705.9375
 20
-4411.8672
 10
377705.3125
 20
-4411.8672
  0
LWPOLYLINE
  5
C75
330
1F
100
AcDbEntity
  8
LAYER4
  6
Continuous
 62
     7
100
AcDbPolyline
 90
        2
 70
     0
 43
0.0
 10
377699.75
 20
-4411.8672
 10
377699.125
 20
-4411.8672
  0
LWPOLYLINE
  5
C79
330
1F
100
AcDbEntity
  8
LAYER4
  6
Continuous
 62
     7
100
AcDbPolyline
 90
        2
 70
     0
 43
0.0
 10
377693.5625
 20
-4411.8672
 10
377692.9688
 20
-4411.8672
  0
LWPOLYLINE
  5
C7D
330
1F
100
AcDbEntity
  8
LAYER4
  6
Continuous
 62
     7
100
AcDbPolyline
 90
        2
 70
     0
 43
0.0
 10
377687.4063
 20
-4411.8672
 10
377686.8125
 20
-4411.8672
  0
LWPOLYLINE
  5
C81
330
1F
100
AcDbEntity
  8
LAYER4
  6
Continuous
 62
     7
100
AcDbPolyline
 90
        2
 70
     0
 43
0.0
 10
377696.6875
 20
-4408.7793
 10
377696.0625
 20
-4408.7793
  0
LWPOLYLINE
  5
C85
330
1F
100
AcDbEntity
  8
LAYER4
  6
Continuous
 62
     7
100
AcDbPolyline
 90
        2
 70
     0
 43
0.0
 10
377690.5
 20
-4408.7793
 10
377689.875
 20
-4408.7793
  0
LWPOLYLINE
  5
C89
330
1F
100
AcDbEntity
  8
LAYER4
  6
Continuous
 62
     7
100
AcDbPolyline
 90
        2
 70
     0
 43
0.0
 10
377684.3125
 20
-4408.7793
 10
377683.6875
 20
-4408.7793
  0
LWPOLYLINE
  5
C8D
330
1F
100
AcDbEntity
  8
LAYER4
  6
Continuous
 62
     7
100
AcDbPolyline
 90
        2
 70
     0
 43
0.0
 10
377678.125
 20
-4408.7793
 10
377677.5313
 20
-4408.7793
  0
LWPOLYLINE
  5
C91
330
1F
100
AcDbEntity
  8
LAYER4
  6
Continuous
 62
     7
100
AcDbPolyline
 90
        2
 70
     0
 43
0.0
 10
377671.9688
 20
-4408.7793
 10
377671.375
 20
-4408.7793
  0
LWPOLYLINE
  5
C95
330
1F
100
AcDbEntity
  8
LAYER4
  6
Continuous
 62
     7
100
AcDbPolyline
 90
        2
 70
     0
 43
0.0
 10
377665.8125
 20
-4408.7793
 10
377665.4688
 20
-4408.7793
  0
LWPOLYLINE
  5
C99
330
1F
100
AcDbEntity
  8
LAYER4
  6
Continuous
 62
     7
100
AcDbPolyline
 90
        2
 70
     0
 43
0.0
 10
377675.0625
 20
-4405.6909
 10
377674.4375
 20
-4405.6909
  0
LWPOLYLINE
  5
C9D
330
1F
100
AcDbEntity
  8
LAYER4
  6
Continuous
 62
     7
100
AcDbPolyline
 90
        2
 70
     0
 43
0.0
 10
377668.875
 20
-4405.6909
 10
377668.25
 20
-4405.6909
  0
LWPOLYLINE
  5
CA1
330
1F
100
AcDbEntity
  8
LAYER4
  6
Continuous
 62
     7
100
AcDbPolyline
 90
        2
 70
     0
 43
0.0
 10
377662.6875
 20
-4405.6909
 10
377662.0938
 20
-4405.6909
  0
LWPOLYLINE
  5
CA5
330
1F
100
AcDbEntity
  8
LAYER4
  6
Continuous
 62
     7
100
AcDbPolyline
 90
        2
 70
     0
 43
0.0
 10
377656.5313
 20
-4405.6909
 10
377655.9375
 20
-4405.6909
  0
LWPOLYLINE
  5
CA9
330
1F
100
AcDbEntity
  8
LAYER4
  6
Continuous
 62
     7
100
AcDbPolyline
 90
        2
 70
     0
 43
0.0
 10
377650.375
 20
-4405.6909
 10
377649.75
 20
-4405.6909
  0
LWPOLYLINE
  5
CAD
330
1F
100
AcDbEntity
  8
LAYER4
  6
Continuous
 62
     7
100
AcDbPolyline
 90
        2
 70
     0
 43
0.0
 10
377659.625
 20
-4402.6025
 10
377659.0
 20
-4402.6025
  0
LWPOLYLINE
  5
CB1
330
1F
100
AcDbEntity
  8
LAYER4
  6
Continuous
 62
     7
100
AcDbPolyline
 90
        2
 70
     0
 43
0.0
 10
377653.4375
 20
-4402.6025
 10
377652.8125
 20
-4402.6025
  0
LWPOLYLINE
  5
CB5
330
1F
100
AcDbEntity
  8
LAYER4
  6
Continuous
 62
     7
100
AcDbPolyline
 90
        2
 70
     0
 43
0.0
 10
377647.25
 20
-4402.6025
 10
377646.6563
 20
-4402.6025
  0
LWPOLYLINE
  5
CB9
330
1F
100
AcDbEntity
  8
LAYER4
  6
Continuous
 62
     7
100
AcDbPolyline
 90
        2
 70
     0
 43
0.0
 10
377641.0938
 20
-4402.6025
 10
377640.4688
 20
-4402.6025
  0
LWPOLYLINE
  5
CBD
330
1F
100
AcDbEntity
  8
LAYER4
  6
Continuous
 62
     7
100
AcDbPolyline
 90
        2
 70
     0
 43
0.0
 10
377634.9063
 20
-4402.6025
 10
377634.3125
 20
-4402.6025
  0
LWPOLYLINE
  5
CC1
330
1F
100
AcDbEntity
  8
LAYER4
  6
Continuous
 62
     7
100
AcDbPolyline
 90
        2
 70
     0
 43
0.0
 10
377628.75
 20
-4402.6025
 10
377628.125
 20
-4402.6025
  0
LWPOLYLINE
  5
CC5
330
1F
100
AcDbEntity
  8
LAYER4
  6
Continuous
 62
     7
100
AcDbPolyline
 90
        2
 70
     0
 43
0.0
 10
377622.5625
 20
-4402.6025
 10
377621.9375
 20
-4402.6025
  0
LWPOLYLINE
  5
CC9
330
1F
100
AcDbEntity
  8
LAYER4
  6
Continuous
 62
     7
100
AcDbPolyline
 90
        2
 70
     0
 43
0.0
 10
377616.375
 20
-4402.6025
 10
377615.75
 20
-4402.6025
  0
LWPOLYLINE
  5
CCD
330
1F
100
AcDbEntity
  8
LAYER4
  6
Continuous
 62
     7
100
AcDbPolyline
 90
        2
 70
     0
 43
0.0
 10
377610.2188
 20
-4402.6025
 10
377609.5938
 20
-4402.6025
  0
LWPOLYLINE
  5
CD1
330
1F
100
AcDbEntity
  8
LAYER4
  6
Continuous
 62
     7
100
AcDbPolyline
 90
        2
 70
     0
 43
0.0
 10
377604.0313
 20
-4402.6025
 10
377603.4375
 20
-4402.6025
  0
LWPOLYLINE
  5
CD5
330
1F
100
AcDbEntity
  8
LAYER4
  6
Continuous
 62
     7
100
AcDbPolyline
 90
        2
 70
     0
 43
0.0
 10
377597.875
 20
-4402.6025
 10
377597.25
 20
-4402.6025
  0
LWPOLYLINE
  5
CD9
330
1F
100
AcDbEntity
  8
LAYER4
  6
Continuous
 62
     7
100
AcDbPolyline
 90
        2
 70
     0
 43
0.0
 10
377591.6875
 20
-4402.6025
 10
377591.0625
 20
-4402.6025
  0
LWPOLYLINE
  5
CDD
330
1F
100
AcDbEntity
  8
LAYER4
  6
Continuous
 62
     7
100
AcDbPolyline
 90
        2
 70
     0
 43
0.0
 10
377585.5
 20
-4402.6025
 10
377584.875
 20
-4402.6025
  0
LWPOLYLINE
  5
CE1
330
1F
100
AcDbEntity
  8
LAYER4
  6
Continuous
 62
     7
100
AcDbPolyline
 90
        2
 70
     0
 43
0.0
 10
377579.3125
 20
-4402.6025
 10
377578.7188
 20
-4402.6025
  0
LWPOLYLINE
  5
CE5
330
1F
100
AcDbEntity
  8
LAYER4
  6
Continuous
 62
     7
100
AcDbPolyline
 90
        2
 70
     0
 43
0.0
 10
377573.1563
 20
-4402.6025
 10
377572.5625
 20
-4402.6025
  0
LWPOLYLINE
  5
CE9
330
1F
100
AcDbEntity
  8
LAYER4
  6
Continuous
 62
     7
100
AcDbPolyline
 90
        2
 70
     0
 43
0.0
 10
377638.0
 20
-4399.5146
 10
377637.375
 20
-4399.5146
  0
LWPOLYLINE
  5
CED
330
1F
100
AcDbEntity
  8
LAYER4
  6
Continuous
 62
     7
100
AcDbPolyline
 90
        2
 70
     0
 43
0.0
 10
377631.8125
 20
-4399.5146
 10
377631.1875
 20
-4399.5146
  0
LWPOLYLINE
  5
CF1
330
1F
100
AcDbEntity
  8
LAYER4
  6
Continuous
 62
     7
100
AcDbPolyline
 90
        2
 70
     0
 43
0.0
 10
377625.625
 20
-4399.5146
 10
377625.0
 20
-4399.5146
  0
LWPOLYLINE
  5
CF5
330
1F
100
AcDbEntity
  8
LAYER4
  6
Continuous
 62
     7
100
AcDbPolyline
 90
        2
 70
     0
 43
0.0
 10
377619.4375
 20
-4399.5146
 10
377618.8438
 20
-4399.5146
  0
LWPOLYLINE
  5
CF9
330
1F
100
AcDbEntity
  8
LAYER4
  6
Continuous
 62
     7
100
AcDbPolyline
 90
        2
 70
     0
 43
0.0
 10
377613.2813
 20
-4399.5146
 10
377612.6875
 20
-4399.5146
  0
LWPOLYLINE
  5
CFD
330
1F
100
AcDbEntity
  8
LAYER4
  6
Continuous
 62
     7
100
AcDbPolyline
 90
        2
 70
     0
 43
0.0
 10
377607.125
 20
-4399.5146
 10
377606.5
 20
-4399.5146
  0
LWPOLYLINE
  5
D01
330
1F
100
AcDbEntity
  8
LAYER4
  6
Continuous
 62
     7
100
AcDbPolyline
 90
        2
 70
     0
 43
0.0
 10
377600.9375
 20
-4399.5146
 10
377600.3125
 20
-4399.5146
  0
LWPOLYLINE
  5
D05
330
1F
100
AcDbEntity
  8
LAYER4
  6
Continuous
 62
     7
100
AcDbPolyline
 90
        2
 70
     0
 43
0.0
 10
377594.75
 20
-4399.5146
 10
377594.125
 20
-4399.5146
  0
LWPOLYLINE
  5
D09
330
1F
100
AcDbEntity
  8
LAYER4
  6
Continuous
 62
     7
100
AcDbPolyline
 90
        2
 70
     0
 43
0.0
 10
377588.5625
 20
-4399.5146
 10
377587.9688
 20
-4399.5146
  0
LWPOLYLINE
  5
D0D
330
1F
100
AcDbEntity
  8
LAYER4
  6
Continuous
 62
     7
100
AcDbPolyline
 90
        2
 70
     0
 43
0.0
 10
377582.4063
 20
-4399.5146
 10
377581.8125
 20
-4399.5146
  0
LWPOLYLINE
  5
D11
330
1F
100
AcDbEntity
  8
LAYER4
  6
Continuous
 62
     7
100
AcDbPolyline
 90
        2
 70
     0
 43
0.0
 10
377576.25
 20
-4399.5146
 10
377575.625
 20
-4399.5146
  0
LWPOLYLINE
  5
D15
330
1F
100
AcDbEntity
  8
LAYER4
  6
Continuous
 62
     7
100
AcDbPolyline
 90
        2
 70
     0
 43
0.0
 10
377570.0625
 20
-4399.5146
 10
377570.0
 20
-4399.5146
  0
LWPOLYLINE
  5
D19
330
1F
100
AcDbEntity
  8
LAYER4
  6
Continuous
 62
     7
100
AcDbPolyline
 90
        2
 70
     0
 43
0.0
 10
377573.125
 20
-4396.4268
 10
377572.5313
 20
-4396.4268
  0
LWPOLYLINE
  5
D1D
330
1F
100
AcDbEntity
  8
LAYER4
  6
Continuous
 62
     7
100
AcDbPolyline
 90
        2
 70
     0
 43
0.0
 10
377570.0625
 20
-4393.3384
 10
377570.0
 20
-4393.3384
  0
LWPOLYLINE
  5
D21
330
1F
100
AcDbEntity
  8
LAYER4
  6
Continuous
 62
     7
100
AcDbPolyline
 90
        2
 70
     0
 43
0.0
 10
377573.125
 20
-4390.25
 10
377572.5313
 20
-4390.25
  0
LWPOLYLINE
  5
D25
330
1F
100
AcDbEntity
  8
LAYER4
  6
Continuous
 62
     7
100
AcDbPolyline
 90
        2
 70
     0
 43
0.0
 10
377570.0625
 20
-4387.1621
 10
377570.0
 20
-4387.1621
  0
LWPOLYLINE
  5
D29
330
1F
100
AcDbEntity
  8
LAYER4
  6
Continuous
 62
     7
100
AcDbPolyline
 90
        2
 70
     0
 43
0.0
 10
377573.125
 20
-4384.0742
 10
377572.5313
 20
-4384.0742
  0
LWPOLYLINE
  5
D2D
330
1F
100
AcDbEntity
  8
LAYER4
  6
Continuous
 62
     7
100
AcDbPolyline
 90
        2
 70
     0
 43
0.0
 10
377570.0625
 20
-4380.9858
 10
377570.0
 20
-4380.9858
  0
LWPOLYLINE
  5
D31
330
1F
100
AcDbEntity
  8
LAYER4
  6
Continuous
 62
     7
100
AcDbPolyline
 90
        2
 70
     0
 43
0.0
 10
377573.125
 20
-4377.8975
 10
377572.5313
 20
-4377.8975
  0
LWPOLYLINE
  5
D35
330
1F
100
AcDbEntity
  8
LAYER4
  6
Continuous
 62
     7
100
AcDbPolyline
 90
        2
 70
     0
 43
0.0
 10
377570.0625
 20
-4374.8096
 10
377570.0
 20
-4374.8096
  0
LWPOLYLINE
  5
D39
330
1F
100
AcDbEntity
  8
LAYER4
  6
Continuous
 62
     7
100
AcDbPolyline
 90
        2
 70
     0
 43
0.0
 10
377573.125
 20
-4371.7217
 10
377572.5313
 20
-4371.7217
  0
LWPOLYLINE
  5
D3D
330
1F
100
AcDbEntity
  8
LAYER4
  6
Continuous
 62
     7
100
AcDbPolyline
 90
        2
 70
     0
 43
0.0
 10
377566.9688
 20
-4371.7217
 10
377566.375
 20
-4371.7217
  0
LWPOLYLINE
  5
D41
330
1F
100
AcDbEntity
  8
LAYER4
  6
Continuous
 62
     7
100
AcDbPolyline
 90
        2
 70
     0
 43
0.0
 10
377560.8125
 20
-4371.7217
 10
377560.1875
 20
-4371.7217
  0
LWPOLYLINE
  5
D45
330
1F
100
AcDbEntity
  8
LAYER4
  6
Continuous
 62
     7
100
AcDbPolyline
 90
        2
 70
     0
 43
0.0
 10
377554.625
 20
-4371.7217
 10
377554.0
 20
-4371.7217
  0
LWPOLYLINE
  5
D49
330
1F
100
AcDbEntity
  8
LAYER4
  6
Continuous
 62
     7
100
AcDbPolyline
 90
        2
 70
     0
 43
0.0
 10
377548.4375
 20
-4371.7217
 10
377547.8125
 20
-4371.7217
  0
LWPOLYLINE
  5
D4D
330
1F
100
AcDbEntity
  8
LAYER4
  6
Continuous
 62
     7
100
AcDbPolyline
 90
        2
 70
     0
 43
0.0
 10
377542.25
 20
-4371.7217
 10
377541.6563
 20
-4371.7217
  0
LWPOLYLINE
  5
D51
330
1F
100
AcDbEntity
  8
LAYER4
  6
Continuous
 62
     7
100
AcDbPolyline
 90
        2
 70
     0
 43
0.0
 10
377536.0938
 20
-4371.7217
 10
377535.4688
 20
-4371.7217
  0
LWPOLYLINE
  5
D55
330
1F
100
AcDbEntity
  8
LAYER4
  6
Continuous
 62
     7
100
AcDbPolyline
 90
        2
 70
     0
 43
0.0
 10
377529.9063
 20
-4371.7217
 10
377529.3125
 20
-4371.7217
  0
LWPOLYLINE
  5
D59
330
1F
100
AcDbEntity
  8
LAYER4
  6
Continuous
 62
     7
100
AcDbPolyline
 90
        2
 70
     0
 43
0.0
 10
377523.75
 20
-4371.7217
 10
377523.125
 20
-4371.7217
  0
LWPOLYLINE
  5
D5D
330
1F
100
AcDbEntity
  8
LAYER4
  6
Continuous
 62
     7
100
AcDbPolyline
 90
        2
 70
     0
 43
0.0
 10
377517.5625
 20
-4371.7217
 10
377516.9375
 20
-4371.7217
  0
LWPOLYLINE
  5
D61
330
1F
100
AcDbEntity
  8
LAYER4
  6
Continuous
 62
     7
100
AcDbPolyline
 90
        2
 70
     0
 43
0.0
 10
377570.0625
 20
-4368.6333
 10
377569.4375
 20
-4368.6333
  0
LWPOLYLINE
  5
D65
330
1F
100
AcDbEntity
  8
LAYER4
  6
Continuous
 62
     7
100
AcDbPolyline
 90
        2
 70
     0
 43
0.0
 10
377563.875
 20
-4368.6333
 10
377563.25
 20
-4368.6333
  0
LWPOLYLINE
  5
D69
330
1F
100
AcDbEntity
  8
LAYER4
  6
Continuous
 62
     7
100
AcDbPolyline
 90
        2
 70
     0
 43
0.0
 10
377557.6875
 20
-4368.6333
 10
377557.0938
 20
-4368.6333
  0
LWPOLYLINE
  5
D6D
330
1F
100
AcDbEntity
  8
LAYER4
  6
Continuous
 62
     7
100
AcDbPolyline
 90
        2
 70
     0
 43
0.0
 10
377551.5313
 20
-4368.6333
 10
377550.9063
 20
-4368.6333
  0
LWPOLYLINE
  5
D71
330
1F
100
AcDbEntity
  8
LAYER4
  6
Continuous
 62
     7
100
AcDbPolyline
 90
        2
 70
     0
 43
0.0
 10
377545.3438
 20
-4368.6333
 10
377544.75
 20
-4368.6333
  0
LWPOLYLINE
  5
D75
330
1F
100
AcDbEntity
  8
LAYER4
  6
Continuous
 62
     7
100
AcDbPolyline
 90
        2
 70
     0
 43
0.0
 10
377539.1875
 20
-4368.6333
 10
377538.5625
 20
-4368.6333
  0
LWPOLYLINE
  5
D79
330
1F
100
AcDbEntity
  8
LAYER4
  6
Continuous
 62
     7
100
AcDbPolyline
 90
        2
 70
     0
 43
0.0
 10
377533.0
 20
-4368.6333
 10
377532.375
 20
-4368.6333
  0
LWPOLYLINE
  5
D7D
330
1F
100
AcDbEntity
  8
LAYER4
  6
Continuous
 62
     7
100
AcDbPolyline
 90
        2
 70
     0
 43
0.0
 10
377526.8125
 20
-4368.6333
 10
377526.1875
 20
-4368.6333
  0
LWPOLYLINE
  5
D81
330
1F
100
AcDbEntity
  8
LAYER4
  6
Continuous
 62
     7
100
AcDbPolyline
 90
        2
 70
     0
 43
0.0
 10
377520.6563
 20
-4368.6333
 10
377520.0313
 20
-4368.6333
  0
LWPOLYLINE
  5
D85
330
1F
100
AcDbEntity
  8
LAYER4
  6
Continuous
 62
     7
100
AcDbPolyline
 90
        2
 70
     0
 43
0.0
 10
377514.4688
 20
-4368.6333
 10
377514.0
 20
-4368.6333
  0
LWPOLYLINE
  5
D89
330
1F
100
AcDbEntity
  8
LAYER4
  6
Continuous
 62
     7
100
AcDbPolyline
 90
        6
 70
     0
 43
0.0
 10
377514.0
 20
-4373.1572
 10
377514.0
 20
-4368.1572
 10
377575.0
 20
-4368.1572
 10
377575.0
 20
-4397.1572
 10
377634.0
 20
-4397.1558
 10
377634.0
 20
-4397.1558
  0
LWPOLYLINE
  5
D91
330
1F
100
AcDbEntity
  8
LAYER4
  6
Continuous
 62
     7
100
AcDbPolyline
 90
        8
 70
     0
 43
0.0
 10
377629.0
 20
-4397.1567
 10
377762.0
 20
-4420.1572
 10
377762.0
 20
-4480.1572
 10
377740.0
 20
-4480.1572
 10
377736.0
 20
-4475.1572
 10
377732.0
 20
-4480.1572
 10
377712.0
 20
-4480.1553
 10
377712.0
 20
-4616.1572
  0
TEXT
  5
D9B
330
1F
100
AcDbEntity
  8
LAYER4
 62
     7
100
AcDbText
 10
377838.0
 20
-4367.6572
 30
0.0
 40
25.0
  1
External coating applied
 41
0.6858884200656352
 72
     5
 11
378203.75
 21
-4367.6572
 31
0.0
100
AcDbText
  0
TEXT
  5
D9C
330
1F
100
AcDbEntity
  8
LAYER4
 62
     7
100
AcDbText
 10
377838.0
 20
-4405.1572
 30
0.0
 40
25.0005
  1
before window is fitted
 41
0.6742362732609821
 72
     5
 11
378186.25
 21
-4405.1572
 31
0.0
100
AcDbText
  0
LWPOLYLINE
  5
D9D
330
1F
100
AcDbEntity
  8
LAYER4
  6
Continuous
 62
     7
100
AcDbPolyline
 90
        3
 70
     0
 43
0.0
 10
377855.0
 20
-4507.1572
 10
377824.0
 20
-4507.1572
 10
377703.0
 20
-4455.1558
  0
LWPOLYLINE
  5
DA2
330
1F
100
AcDbEntity
  8
LAYER4
  6
Continuous
 62
     7
100
AcDbPolyline
 90
        4
 70
     0
 43
0.0
 10
377724.0
 20
-4469.6211
 10
377703.0
 20
-4455.1558
 10
377727.9375
 20
-4460.4326
 10
377724.0
 20
-4469.6211
  0
LWPOLYLINE
  5
DA8
330
1F
100
AcDbEntity
  8
LAYER4
  6
Continuous
 62
     7
100
AcDbPolyline
 90
        3
 70
     0
 43
0.0
 10
377834.0
 20
-4354.1572
 10
377777.0
 20
-4354.1572
 10
377729.0
 20
-4415.1572
  0
LWPOLYLINE
  5
DAD
330
1F
100
AcDbEntity
  8
LAYER4
  6
Continuous
 62
     7
100
AcDbPolyline
 90
        4
 70
     0
 43
0.0
 10
377748.375
 20
-4398.6006
 10
377729.0
 20
-4415.1572
 10
377740.5313
 20
-4392.417
 10
377748.375
 20
-4398.6006
  0
LWPOLYLINE
  5
DB3
330
1F
100
AcDbEntity
  8
LAYER4
  6
Continuous
 62
     7
100
AcDbPolyline
 90
        3
 70
     0
 43
0.0
 10
377834.0
 20
-4304.1567
 10
377725.0
 20
-4304.1567
 10
377659.0
 20
-4395.1572
  0
LWPOLYLINE
  5
DB8
330
1F
100
AcDbEntity
  8
LAYER4
  6
Continuous
 62
     7
100
AcDbPolyline
 90
        4
 70
     0
 43
0.0
 10
377677.7188
 20
-4377.855
 10
377659.0
 20
-4395.1572
 10
377669.625
 20
-4371.9829
 10
377677.7188
 20
-4377.855
  0
LWPOLYLINE
  5
DBE
330
1F
100
AcDbEntity
  8
LAYER4
  6
Continuous
 62
     7
100
AcDbPolyline
 90
        3
 70
     0
 43
0.0
 10
377779.0
 20
-4250.1567
 10
377727.0
 20
-4250.1567
 10
377635.0
 20
-4281.1563
  0
LWPOLYLINE
  5
DC3
330
1F
100
AcDbEntity
  8
LAYER4
  6
Continuous
 62
     7
100
AcDbPolyline
 90
        4
 70
     0
 43
0.0
 10
377660.2813
 20
-4277.9116
 10
377635.0
 20
-4281.1563
 10
377657.0938
 20
-4268.4346
 10
377660.2813
 20
-4277.9116
  0
LWPOLYLINE
  5
DC9
330
1F
100
AcDbEntity
  8
LAYER4
  6
Continuous
 62
     7
100
AcDbPolyline
 90
        3
 70
     0
 43
0.0
 10
377432.0
 20
-4451.1572
 10
377486.0
 20
-4451.1572
 10
377593.0
 20
-4439.1558
  0
LWPOLYLINE
  5
DCE
330
1F
100
AcDbEntity
  8
LAYER4
  6
Continuous
 62
     7
100
AcDbPolyline
 90
        4
 70
     0
 43
0.0
 10
377567.5938
 20
-4436.9736
 10
377593.0
 20
-4439.1558
 10
377568.7188
 20
-4446.9121
 10
377567.5938
 20
-4436.9736
  0
LWPOLYLINE
  5
DD4
330
1F
100
AcDbEntity
  8
LAYER4
  6
Continuous
 62
     7
100
AcDbPolyline
 90
        3
 70
     0
 43
0.0
 10
377432.0
 20
-4322.1563
 10
377494.0
 20
-4322.1567
 10
377575.0
 20
-4364.1572
  0
LWPOLYLINE
  5
DD9
330
1F
100
AcDbEntity
  8
LAYER4
  6
Continuous
 62
     7
100
AcDbPolyline
 90
        4
 70
     0
 43
0.0
 10
377555.0938
 20
-4348.2085
 10
377575.0
 20
-4364.1572
 10
377550.5
 20
-4357.0869
 10
377555.0938
 20
-4348.2085
  0
LWPOLYLINE
  5
DDF
330
1F
100
AcDbEntity
  8
LAYER4
  6
Continuous
 62
     7
100
AcDbPolyline
 90
        3
 70
     0
 43
0.0
 10
377494.0
 20
-4322.1567
 10
377620.0
 20
-4322.1563
 10
377630.0
 20
-4394.1572
  0
LWPOLYLINE
  5
DE4
330
1F
100
AcDbEntity
  8
LAYER4
  6
Continuous
 62
     7
100
AcDbPolyline
 90
        4
 70
     0
 43
0.0
 10
377631.5
 20
-4368.7051
 10
377630.0
 20
-4394.1572
 10
377621.625
 20
-4370.082
 10
377631.5
 20
-4368.7051
  0
TEXT
  5
DEA
330
1F
100
AcDbEntity
  8
LAYER4
 62
     7
100
AcDbText
 10
378008.5625
 20
-5544.5059
 30
0.0
 40
25.0
  1
Aluminium Window Frame Detail
 41
0.7796208530805687
 72
     5
 11
378502.0625
 21
-5544.5059
 31
0.0
100
AcDbText
  0
LWPOLYLINE
  5
DEB
330
1F
100
AcDbEntity
  8
LAYER4
  6
Continuous
 62
     7
100
AcDbPolyline
 90
       41
 70
     0
 43
2.0
 10
378158.9375
 20
-5161.542
 10
378159.5625
 20
-5161.6865
 10
378160.1875
 20
-5161.7568
 10
378160.8438
 20
-5161.751
 10
378161.4375
 20
-5161.668
 10
378162.0
 20
-5161.5117
 10
378162.5313
 20
-5161.2852
 10
378162.9688
 20
-5160.9937
 10
378163.3125
 20
-5160.6445
 10
378163.5938
 20
-5160.2471
 10
378163.75
 20
-5159.8096
 10
378163.8438
 20
-5159.3447
 10
378163.8125
 20
-5158.8623
 10
378163.6875
 20
-5158.375
 10
378163.5
 20
-5157.895
 10
378163.1875
 20
-5157.4336
 10
378162.7813
 20
-5157.002
 10
378162.3125
 20
-5156.6123
 10
378161.75
 20
-5156.2715
 10
378161.1875
 20
-5155.9902
 10
378160.5625
 20
-5155.7749
 10
378159.9375
 20
-5155.6299
 10
378159.3125
 20
-5155.5605
 10
378158.625
 20
-5155.5664
 10
378158.0625
 20
-5155.6494
 10
378157.5
 20
-5155.8057
 10
378156.9688
 20
-5156.0322
 10
378156.5313
 20
-5156.3237
 10
378156.1875
 20
-5156.6729
 10
378155.875
 20
-5157.0703
 10
378155.7188
 20
-5157.5078
 10
378155.625
 20
-5157.9727
 10
378155.6563
 20
-5158.4551
 10
378155.7813
 20
-5158.9424
 10
378156.0
 20
-5159.4219
 10
378156.3125
 20
-5159.8838
 10
378156.6875
 20
-5160.3149
 10
378157.1875
 20
-5160.7051
 10
378157.7188
 20
-5161.0459
 10
378158.3125
 20
-5161.3267
 10
378158.9375
 20
-5161.542
  0
TEXT
  5
E16
330
1F
100
AcDbEntity
  8
LAYER4
 62
     7
100
AcDbText
 10
377583.625
 20
-5118.1582
 30
0.0
 40
25.0
  1
Aluminium window frame
 41
0.7891440501043842
 72
     5
 11
377961.625
 21
-5118.1582
 31
0.0
100
AcDbText
  0
TEXT
  5
E17
330
1F
100
AcDbEntity
  8
LAYER4
 62
     7
100
AcDbText
 10
377889.5313
 20
-5018.3242
 30
0.0
 40
25.0
  1
Masonry anchor
 41
0.7220190197512801
 72
     5
 11
378136.2813
 21
-5018.3242
 31
0.0
100
AcDbText
  0
TEXT
  5
E18
330
1F
100
AcDbEntity
  8
LAYER4
 62
     7
100
AcDbText
 10
378417.0
 20
-5154.1582
 30
0.0
 40
25.0
  1
Reinforced
 50
0.0013443337338679
 41
0.7387502224254499
 72
     5
 11
378583.2188
 21
-5154.1543
 31
0.0
100
AcDbText
  0
TEXT
  5
E19
330
1F
100
AcDbEntity
  8
LAYER4
 62
     7
100
AcDbText
 10
378417.0
 20
-5191.6582
 30
0.0
 40
25.0
  1
concrete blockwork
 41
0.697146185206756
 72
     5
 11
378716.25
 21
-5191.6582
 31
0.0
100
AcDbText
  0
TEXT
  5
E1A
330
1F
100
AcDbEntity
  8
LAYER4
 62
     7
100
AcDbText
 10
378335.0
 20
-5336.6592
 30
0.0
 40
25.0
  1
External coating applied
 41
0.6858884200656352
 72
     5
 11
378700.75
 21
-5336.6592
 31
0.0
100
AcDbText
  0
TEXT
  5
E1B
330
1F
100
AcDbEntity
  8
LAYER4
 62
     7
100
AcDbText
 10
378335.0
 20
-5374.1592
 30
0.0
 40
25.0
  1
before window is fitted
 41
0.6742497579864473
 72
     5
 11
378683.25
 21
-5374.1592
 31
0.0
100
AcDbText
  0
TEXT
  5
E1C
330
1F
100
AcDbEntity
  8
LAYER4
 62
     7
100
AcDbText
 10
377896.0
 20
-5299.1592
 30
0.0
 40
25.0
  1
Sealant
 50
0.0024307300384445
 41
0.7487844415166249
 72
     5
 11
378011.5
 21
-5299.1543
 31
0.0
100
AcDbText
  0
TEXT
  5
E1D
330
1F
100
AcDbEntity
  8
LAYER4
 62
     7
100
AcDbText
 10
378331.375
 20
-4792.1914
 30
0.0
 40
24.832
  1
At Sill - Reinforced Concrete Masonry
 41
0.6819054456668298
 72
     5
 11
378912.6875
 21
-4792.1914
 31
0.0
100
AcDbText
  0
TEXT
  5
E1E
330
1F
100
AcDbEntity
  8
LAYER4
 62
     7
100
AcDbText
 10
378375.9375
 20
-4753.5039
 30
0.0
 40
24.999
  1
Aluminium Window Frame Detail
 41
0.7796520391621353
 72
     5
 11
378869.4375
 21
-4753.5039
 31
0.0
100
AcDbText
  0
TEXT
  5
E1F
330
1F
100
AcDbEntity
  8
LAYER4
 62
     7
100
AcDbText
 10
378802.0313
 20
-4485.752
 30
0.0
 40
25.0
  1
Sill tile fixed to
 41
0.6228813559322034
 72
     5
 11
379022.5313
 21
-4485.752
 31
0.0
100
AcDbText
  0
TEXT
  5
E20
330
1F
100
AcDbEntity
  8
LAYER4
 62
     7
100
AcDbText
 10
378775.0625
 20
-4267.7515
 30
0.0
 40
25.0
  1
Aluminium window frame
 50
0.0000757943241939
 41
0.789078914405645
 72
     5
 11
379153.0313
 21
-4267.751
 31
0.0
100
AcDbText
  0
LWPOLYLINE
  5
E21
330
1F
100
AcDbEntity
  8
LAYER4
  6
Continuous
 62
     7
100
AcDbPolyline
 90
        3
 70
     0
 43
0.0
 10
378772.0
 20
-4254.751
 10
378720.0313
 20
-4254.751
 10
378628.0625
 20
-4285.7515
  0
LWPOLYLINE
  5
E26
330
1F
100
AcDbEntity
  8
LAYER4
  6
Continuous
 62
     7
100
AcDbPolyline
 90
        4
 70
     0
 43
0.0
 10
378653.3438
 20
-4282.5044
 10
378628.0625
 20
-4285.7515
 10
378650.125
 20
-4273.0244
 10
378653.3438
 20
-4282.5044
  0
LWPOLYLINE
  5
E2C
330
1F
100
AcDbEntity
  8
LAYER4
  6
Continuous
 62
     7
100
AcDbPolyline
 90
        5
 70
     0
 43
2.5
 10
378587.0313
 20
-4457.1558
 10
378587.0313
 20
-4479.1558
 10
378490.0313
 20
-4479.1572
 10
378490.0313
 20
-4457.1572
 10
378587.0313
 20
-4457.1558
  0
TEXT
  5
E33
330
1F
100
AcDbEntity
  8
LAYER4
 62
     7
100
AcDbText
 10
378775.0313
 20
-4428.1558
 30
0.0
 40
25.0
  1
Sealant
 50
359.9993055057033
 41
0.7487844408977948
 72
     5
 11
378890.5313
 21
-4428.1572
 31
0.0
100
AcDbText
  0
LWPOLYLINE
  5
E34
330
1F
100
AcDbEntity
  8
LAYER4
  6
Continuous
 62
     7
100
AcDbPolyline
 90
        3
 70
     0
 43
0.0
 10
378797.0313
 20
-4472.1572
 10
378741.0313
 20
-4472.1572
 10
378686.0313
 20
-4475.1572
  0
LWPOLYLINE
  5
E39
330
1F
100
AcDbEntity
  8
LAYER4
  6
Continuous
 62
     7
100
AcDbPolyline
 90
        4
 70
     0
 43
0.0
 10
378711.25
 20
-4478.7881
 10
378686.0313
 20
-4475.1572
 10
378710.7188
 20
-4468.8027
 10
378711.25
 20
-4478.7881
  0
LWPOLYLINE
  5
E3F
330
1F
100
AcDbEntity
  8
LAYER4
  6
Continuous
 62
     7
100
AcDbPolyline
 90
        3
 70
     0
 43
0.0
 10
378773.0
 20
-4415.1572
 10
378718.0
 20
-4415.1558
 10
378634.0313
 20
-4453.1572
  0
LWPOLYLINE
  5
E44
330
1F
100
AcDbEntity
  8
LAYER4
  6
Continuous
 62
     7
100
AcDbPolyline
 90
        4
 70
     0
 43
0.0
 10
378658.875
 20
-4447.4063
 10
378634.0313
 20
-4453.1572
 10
378654.75
 20
-4438.2949
 10
378658.875
 20
-4447.4063
  0
TEXT
  5
E4A
330
1F
100
AcDbEntity
  8
LAYER4
 62
     7
100
AcDbText
 10
378367.0313
 20
-4377.1567
 30
0.0
 40
25.0
  1
Internal
 41
0.6652046783625731
 72
     5
 11
378480.7813
 21
-4377.1567
 31
0.0
100
AcDbText
  0
TEXT
  5
E4B
330
1F
100
AcDbEntity
  8
LAYER4
 62
     7
100
AcDbText
 10
378367.0313
 20
-4414.6572
 30
0.0
 40
25.0
  1
sill
 50
0.0020834828892667
 41
0.7700000005090909
 72
     5
 11
378405.5313
 21
-4414.6558
 31
0.0
100
AcDbText
  0
LWPOLYLINE
  5
E4C
330
1F
100
AcDbEntity
  8
LAYER4
  6
Continuous
 62
     7
100
AcDbPolyline
 90
        3
 70
     0
 43
0.0
 10
378410.0313
 20
-4402.1567
 10
378451.0313
 20
-4402.1567
 10
378503.0313
 20
-4457.1558
  0
LWPOLYLINE
  5
E51
330
1F
100
AcDbEntity
  8
LAYER4
  6
Continuous
 62
     7
100
AcDbPolyline
 90
        4
 70
     0
 43
0.0
 10
378489.5
 20
-4435.5522
 10
378503.0313
 20
-4457.1558
 10
378482.2188
 20
-4442.4219
 10
378489.5
 20
-4435.5522
  0
TEXT
  5
E57
330
1F
100
AcDbEntity
  8
LAYER4
 62
     7
100
AcDbText
 10
378803.0313
 20
-4521.1572
 30
0.0
 40
25.0
  1
blockwork at 15
 41
0.708092485549133
 72
     5
 11
379048.0313
 21
-4521.1572
 31
0.0
100
AcDbText
  0
TEXT
  5
E58
330
1F
100
AcDbEntity
  8
LAYER4
 62
     7
100
AcDbText
 10
379051.0
 20
-4506.1553
 30
0.0
 40
14.9995
  1
o
 50
359.9905849098331
 41
1.150535879166928
 72
     5
 11
379062.5625
 21
-4506.1572
 31
0.0
100
AcDbText
  0
LWPOLYLINE
  5
E59
330
1F
100
AcDbEntity
  8
LAYER5
  6
Continuous
 62
     7
100
AcDbPolyline
 90
        2
 70
     0
 43
3.0
 10
378186.5313
 20
-3794.3394
 10
378186.5313
 20
-3747.3516
  0
LWPOLYLINE
  5
E5D
330
1F
100
AcDbEntity
  8
LAYER5
  6
Continuous
 62
     7
100
AcDbPolyline
 90
        2
 70
     0
 43
3.0
 10
378132.5938
 20
-3747.4089
 10
378132.5938
 20
-3794.1868
  0
ARC
  5
E61
330
1F
100
AcDbEntity
  8
LAYER5
  6
Continuous
 62
     7
100
AcDbCircle
 10
378126.5
 20
-3793.1807
 30
0.0
 40
6.0353
100
AcDbArc
 50
319.1106
 51
359.9884
  0
LWPOLYLINE
  5
E62
330
1F
100
AcDbEntity
  8
LAYER5
  6
Continuous
 62
     7
100
AcDbPolyline
 90
        2
 70
     0
 43
3.0
 10
378131.0625
 20
-3797.1313
 10
378126.0
 20
-3802.8887
  0
LWPOLYLINE
  5
E66
330
1F
100
AcDbEntity
  8
LAYER5
  6
Continuous
 62
     7
100
AcDbPolyline
 90
        2
 70
     0
 43
3.0
 10
378194.625
 20
-3801.6245
 10
378189.625
 20
-3798.8447
  0
ARC
  5
E6A
330
1F
100
AcDbEntity
  8
LAYER5
  6
Continuous
 62
     7
100
AcDbCircle
 10
378192.5625
 20
-3793.6069
 30
0.0
 40
6.0313
100
AcDbArc
 50
180.0
 51
240.8433
  0
LWPOLYLINE
  5
E6B
330
1F
100
AcDbEntity
  8
LAYER5
  6
Continuous
 62
     7
100
AcDbPolyline
 90
        2
 70
     0
 43
2.0
 10
378103.6563
 20
-5214.2832
 10
377964.0
 20
-5214.2832
  0
LWPOLYLINE
  5
E6F
330
1F
100
AcDbEntity
  8
LAYER5
  6
Continuous
 62
     7
100
AcDbPolyline
 90
        2
 70
     0
 43
3.0
 10
377634.4688
 20
-4391.5332
 10
377634.4688
 20
-4391.5332
  0
LWPOLYLINE
  5
E73
330
1F
100
AcDbEntity
  8
LAYER5
  6
Continuous
 62
     7
100
AcDbPolyline
 90
        2
 70
     0
 43
3.0
 10
377614.4375
 20
-4360.5342
 10
377609.25
 20
-4371.7861
  0
ARC
  5
E77
330
1F
100
AcDbEntity
  8
LAYER5
  6
Continuous
 62
     7
100
AcDbCircle
 10
377614.6875
 20
-4374.3008
 30
0.0
 40
5.9908
100
AcDbArc
 50
155.1812
 51
203.1064
  0
LWPOLYLINE
  5
E78
330
1F
100
AcDbEntity
  8
LAYER5
  6
Continuous
 62
     7
100
AcDbPolyline
 90
        2
 70
     0
 43
3.0
 10
377609.1875
 20
-4376.6289
 10
377615.4688
 20
-4391.5332
  0
LWPOLYLINE
  5
E7C
330
1F
100
AcDbEntity
  8
LAYER5
  6
Continuous
 62
     7
100
AcDbPolyline
 90
        2
 70
     0
 43
3.0
 10
378124.9375
 20
-5188.5132
 10
378136.1875
 20
-5193.707
  0
ARC
  5
E80
330
1F
100
AcDbEntity
  8
LAYER5
  6
Continuous
 62
     7
100
AcDbCircle
 10
378138.7188
 20
-5188.2598
 30
0.0
 40
6.0067
100
AcDbArc
 50
245.0765
 51
292.9638
  0
LWPOLYLINE
  5
E81
330
1F
100
AcDbEntity
  8
LAYER5
  6
Continuous
 62
     7
100
AcDbPolyline
 90
        2
 70
     0
 43
3.0
 10
378141.0625
 20
-5193.7896
 10
378155.9063
 20
-5187.5137
  0
LWPOLYLINE
  5
E85
330
1F
100
AcDbEntity
  8
LAYER5
  6
Continuous
 62
     7
100
AcDbPolyline
 90
        2
 70
     0
 43
3.0
 10
378155.9063
 20
-5159.5137
 10
378155.9063
 20
-5159.5137
  0
LWPOLYLINE
  5
E89
330
1F
100
AcDbEntity
  8
LAYER5
  6
Continuous
 62
     7
100
AcDbPolyline
 90
        2
 70
     0
 43
2.0
 10
378124.0313
 20
-5160.4087
 10
377964.75
 20
-5160.4087
  0
LWPOLYLINE
  5
E8D
330
1F
100
AcDbEntity
  8
LAYER5
  6
Continuous
 62
     7
100
AcDbPolyline
 90
        2
 70
     0
 43
3.0
 10
378160.0
 20
-3778.4097
 10
378165.25
 20
-3767.1567
  0
ARC
  5
E91
330
1F
100
AcDbEntity
  8
LAYER5
  6
Continuous
 62
     7
100
AcDbCircle
 10
378159.75
 20
-3764.6431
 30
0.0
 40
6.0472
100
AcDbArc
 50
335.4381
 51
22.8139
  0
LWPOLYLINE
  5
E92
330
1F
100
AcDbEntity
  8
LAYER5
  6
Continuous
 62
     7
100
AcDbPolyline
 90
        2
 70
     0
 43
3.0
 10
378165.25
 20
-3762.314
 10
378159.0313
 20
-3747.4106
  0
LWPOLYLINE
  5
E96
330
1F
100
AcDbEntity
  8
LAYER5
  6
Continuous
 62
     7
100
AcDbPolyline
 90
        2
 70
     0
 43
3.0
 10
378186.5313
 20
-3747.408
 10
378132.5938
 20
-3747.4089
  0
ARC
  5
E9A
330
1F
100
AcDbEntity
  8
LAYER5
  6
Continuous
 62
     7
100
AcDbCircle
 10
378173.5625
 20
-3745.9663
 30
0.0
 40
2.625
100
AcDbArc
 50
180.0
 51
0.0107
  0
LWPOLYLINE
  5
E9B
330
1F
100
AcDbEntity
  8
LAYER5
  6
Continuous
 62
     7
100
AcDbPolyline
 90
        2
 70
     0
 43
2.0
 10
378142.75
 20
-3748.1091
 10
378142.75
 20
-3700.5679
  0
LWPOLYLINE
  5
E9F
330
1F
100
AcDbEntity
  8
LAYER5
  6
Continuous
 62
     7
100
AcDbPolyline
 90
        2
 70
     0
 43
2.0
 10
378148.0
 20
-3746.4346
 10
378148.0
 20
-3700.5073
  0
LWPOLYLINE
  5
EA3
330
1F
100
AcDbEntity
  8
LAYER5
  6
Continuous
 62
     7
100
AcDbPolyline
 90
        3
 70
     0
 43
2.0
 10
378141.8125
 20
-3702.1233
 10
378141.8125
 20
-3659.2251
 10
378141.8125
 20
-3659.2251
  0
LWPOLYLINE
  5
EA8
330
1F
100
AcDbEntity
  8
LAYER5
  6
Continuous
 62
     7
100
AcDbPolyline
 90
        3
 70
     0
 43
2.0
 10
378148.9063
 20
-3702.125
 10
378148.9063
 20
-3659.2271
 10
378148.9063
 20
-3659.2271
  0
LWPOLYLINE
  5
EAD
330
1F
100
AcDbEntity
  8
LAYER5
  6
Continuous
 62
     7
100
AcDbPolyline
 90
        3
 70
     0
 43
2.0
 10
378141.8125
 20
-3660.9414
 10
378148.9063
 20
-3660.9419
 10
378148.9063
 20
-3660.9419
  0
LWPOLYLINE
  5
EB2
330
1F
100
AcDbEntity
  8
LAYER5
  6
Continuous
 62
     7
100
AcDbPolyline
 90
        2
 70
     0
 43
0.0
 10
378143.0
 20
-3708.2798
 10
378147.1563
 20
-3704.1025
  0
LWPOLYLINE
  5
EB6
330
1F
100
AcDbEntity
  8
LAYER5
  6
Continuous
 62
     7
100
AcDbPolyline
 90
        2
 70
     0
 43
0.0
 10
378142.8125
 20
-3699.6829
 10
378147.1563
 20
-3695.3691
  0
LWPOLYLINE
  5
EBA
330
1F
100
AcDbEntity
  8
LAYER5
  6
Continuous
 62
     7
100
AcDbPolyline
 90
        2
 70
     0
 43
0.0
 10
378142.75
 20
-3691.0498
 10
378143.0
 20
-3690.8044
  0
LWPOLYLINE
  5
EBE
330
1F
100
AcDbEntity
  8
LAYER5
  6
Continuous
 62
     7
100
AcDbPolyline
 90
        2
 70
     0
 43
0.0
 10
378143.0
 20
-3690.8044
 10
378148.0
 20
-3685.7788
  0
LWPOLYLINE
  5
EC2
330
1F
100
AcDbEntity
  8
LAYER5
  6
Continuous
 62
     7
100
AcDbPolyline
 90
        2
 70
     0
 43
0.0
 10
378142.75
 20
-3682.3164
 10
378146.4375
 20
-3678.6069
  0
LWPOLYLINE
  5
EC6
330
1F
100
AcDbEntity
  8
LAYER5
  6
Continuous
 62
     7
100
AcDbPolyline
 90
        2
 70
     0
 43
0.0
 10
378146.4375
 20
-3678.6069
 10
378148.0
 20
-3677.0454
  0
LWPOLYLINE
  5
ECA
330
1F
100
AcDbEntity
  8
LAYER5
  6
Continuous
 62
     7
100
AcDbPolyline
 90
        2
 70
     0
 43
0.0
 10
378142.75
 20
-3673.583
 10
378148.0
 20
-3668.3123
  0
LWPOLYLINE
  5
ECE
330
1F
100
AcDbEntity
  8
LAYER5
  6
Continuous
 62
     7
100
AcDbPolyline
 90
        2
 70
     0
 43
0.0
 10
378142.75
 20
-3664.8496
 10
378144.625
 20
-3662.95
  0
LWPOLYLINE
  5
ED2
330
1F
100
AcDbEntity
  8
LAYER5
  6
Continuous
 62
     7
100
AcDbPolyline
 90
        2
 70
     0
 43
0.0
 10
378144.625
 20
-3662.95
 10
378144.9375
 20
-3662.6575
  0
LWPOLYLINE
  5
ED6
330
1F
100
AcDbEntity
  8
LAYER5
  6
Continuous
 62
     7
100
AcDbPolyline
 90
        2
 70
     0
 43
0.0
 10
378143.125
 20
-3716.8767
 10
378147.1563
 20
-3712.8357
  0
LWPOLYLINE
  5
EDA
330
1F
100
AcDbEntity
  8
LAYER5
  6
Continuous
 62
     7
100
AcDbPolyline
 90
        2
 70
     0
 43
0.0
 10
378143.25
 20
-3725.4736
 10
378147.1563
 20
-3721.5688
  0
LWPOLYLINE
  5
EDE
330
1F
100
AcDbEntity
  8
LAYER5
  6
Continuous
 62
     7
100
AcDbPolyline
 90
        2
 70
     0
 43
0.0
 10
378143.375
 20
-3734.0708
 10
378143.875
 20
-3733.5708
  0
LWPOLYLINE
  5
EE2
330
1F
100
AcDbEntity
  8
LAYER5
  6
Continuous
 62
     7
100
AcDbPolyline
 90
        2
 70
     0
 43
0.0
 10
378143.875
 20
-3733.5708
 10
378147.1563
 20
-3730.3022
  0
LWPOLYLINE
  5
EE6
330
1F
100
AcDbEntity
  8
LAYER5
  6
Continuous
 62
     7
100
AcDbPolyline
 90
        2
 70
     0
 43
0.0
 10
378143.5313
 20
-3742.6677
 10
378147.1563
 20
-3739.0356
  0
LWPOLYLINE
  5
EEA
330
1F
100
AcDbEntity
  8
LAYER5
  6
Continuous
 62
     7
100
AcDbPolyline
 90
        6
 70
     0
 43
1.5
 10
378152.4375
 20
-3748.5347
 10
378152.4375
 20
-3754.5349
 10
378138.4375
 20
-3754.5349
 10
378138.4375
 20
-3748.5347
 10
378152.4375
 20
-3748.5347
 10
378152.4375
 20
-3748.5347
  0
LWPOLYLINE
  5
EF2
330
1F
100
AcDbEntity
  8
LAYER5
  6
Continuous
 62
     7
100
AcDbPolyline
 90
        4
 70
     0
 43
1.5
 10
378142.4688
 20
-3754.4983
 10
378142.4688
 20
-3758.408
 10
378148.4375
 20
-3758.408
 10
378148.4375
 20
-3754.4983
  0
LWPOLYLINE
  5
EF8
330
1F
100
AcDbEntity
  8
LAYER5
  6
Continuous
 62
     7
100
AcDbPolyline
 90
        2
 70
     0
 43
1.5
 10
378141.4375
 20
-3748.5332
 10
378141.4375
 20
-3754.5332
  0
LWPOLYLINE
  5
EFC
330
1F
100
AcDbEntity
  8
LAYER5
  6
Continuous
 62
     7
100
AcDbPolyline
 90
        2
 70
     0
 43
1.5
 10
378149.4688
 20
-3748.5332
 10
378149.4688
 20
-3754.5332
  0
LWPOLYLINE
  5
F00
330
1F
100
AcDbEntity
  8
LAYER5
  6
Continuous
 62
     7
100
AcDbPolyline
 90
        2
 70
     0
 43
0.0
 10
378143.4688
 20
-3755.5237
 10
378149.4688
 20
-3749.5344
  0
LWPOLYLINE
  5
F04
330
1F
100
AcDbEntity
  8
LAYER5
  6
Continuous
 62
     7
100
AcDbPolyline
 90
        2
 70
     0
 43
0.0
 10
378139.4375
 20
-3750.7903
 10
378140.7188
 20
-3749.5332
  0
LWPOLYLINE
  5
F08
330
1F
100
AcDbEntity
  8
LAYER5
  6
Continuous
 62
     7
100
AcDbPolyline
 90
        2
 70
     0
 43
3.0
 10
377634.4688
 20
-4391.5332
 10
377579.875
 20
-4391.5332
  0
LWPOLYLINE
  5
F0C
330
1F
100
AcDbEntity
  8
LAYER5
  6
Continuous
 62
     7
100
AcDbPolyline
 90
       25
 70
     0
 43
5.0
 10
377633.0
 20
-4391.1558
 10
377634.0
 20
-4391.5093
 10
377635.0
 20
-4391.8623
 10
377635.9688
 20
-4392.2129
 10
377637.0
 20
-4392.561
 10
377637.9688
 20
-4392.9063
 10
377638.9688
 20
-4393.2471
 10
377639.9688
 20
-4393.583
 10
377640.9688
 20
-4393.9131
 10
377642.0
 20
-4394.2358
 10
377643.0
 20
-4394.5518
 10
377644.0
 20
-4394.8589
 10
377645.0
 20
-4395.1572
 10
377646.9375
 20
-4395.7061
 10
377648.9375
 20
-4396.2207
 10
377650.9375
 20
-4396.7041
 10
377652.9063
 20
-4397.1587
 10
377654.9063
 20
-4397.5889
 10
377656.9063
 20
-4397.9961
 10
377658.9063
 20
-4398.3853
 10
377660.9375
 20
-4398.7588
 10
377662.9375
 20
-4399.1191
 10
377664.9375
 20
-4399.4702
 10
377666.9688
 20
-4399.8154
 10
377669.0
 20
-4400.1572
  0
ARC
  5
F27
330
1F
100
AcDbEntity
  8
LAYER5
  6
Continuous
 62
     7
100
AcDbCircle
 10
377640.375
 20
-4346.1807
 30
0.0
 40
6.0356
100
AcDbArc
 50
139.1071
 51
180.0
  0
LWPOLYLINE
  5
F28
330
1F
100
AcDbEntity
  8
LAYER5
  6
Continuous
 62
     7
100
AcDbPolyline
 90
        2
 70
     0
 43
3.0
 10
377635.8125
 20
-4342.2295
 10
377640.875
 20
-4336.4727
  0
LWPOLYLINE
  5
F2C
330
1F
100
AcDbEntity
  8
LAYER5
  6
Continuous
 62
     7
100
AcDbPolyline
 90
        2
 70
     0
 43
3.0
 10
377572.25
 20
-4337.7363
 10
377577.25
 20
-4340.5161
  0
ARC
  5
F30
330
1F
100
AcDbEntity
  8
LAYER5
  6
Continuous
 62
     7
100
AcDbCircle
 10
377574.3438
 20
-4345.7539
 30
0.0
 40
6.0313
100
AcDbArc
 50
0.0
 51
61.174
  0
LWPOLYLINE
  5
F31
330
1F
100
AcDbEntity
  8
LAYER5
  6
Continuous
 62
     7
100
AcDbPolyline
 90
        2
 70
     0
 43
2.0
 10
377597.625
 20
-4389.6768
 10
377597.625
 20
-4419.5171
  0
LWPOLYLINE
  5
F35
330
1F
100
AcDbEntity
  8
LAYER5
  6
Continuous
 62
     7
100
AcDbPolyline
 90
        2
 70
     0
 43
2.0
 10
377592.3438
 20
-4391.4385
 10
377592.3438
 20
-4419.2305
  0
LWPOLYLINE
  5
F39
330
1F
100
AcDbEntity
  8
LAYER5
  6
Continuous
 62
     7
100
AcDbPolyline
 90
        3
 70
     0
 43
2.0
 10
377598.5
 20
-4418.749
 10
377598.5
 20
-4465.6484
 10
377598.5
 20
-4465.6484
  0
LWPOLYLINE
  5
F3E
330
1F
100
AcDbEntity
  8
LAYER5
  6
Continuous
 62
     7
100
AcDbPolyline
 90
        3
 70
     0
 43
2.0
 10
377591.4375
 20
-4418.749
 10
377591.4375
 20
-4465.6484
 10
377591.4375
 20
-4465.6484
  0
LWPOLYLINE
  5
F43
330
1F
100
AcDbEntity
  8
LAYER5
  6
Continuous
 62
     7
100
AcDbPolyline
 90
        3
 70
     0
 43
2.0
 10
377598.5
 20
-4464.8652
 10
377591.4375
 20
-4464.8672
 10
377591.4375
 20
-4464.8672
  0
LWPOLYLINE
  5
F48
330
1F
100
AcDbEntity
  8
LAYER5
  6
Continuous
 62
     7
100
AcDbPolyline
 90
        2
 70
     0
 43
0.0
 10
377593.1875
 20
-4428.877
 10
377597.375
 20
-4424.7104
  0
LWPOLYLINE
  5
F4C
330
1F
100
AcDbEntity
  8
LAYER5
  6
Continuous
 62
     7
100
AcDbPolyline
 90
        2
 70
     0
 43
0.0
 10
377593.1875
 20
-4420.1445
 10
377597.25
 20
-4416.1328
  0
LWPOLYLINE
  5
F50
330
1F
100
AcDbEntity
  8
LAYER5
  6
Continuous
 62
     7
100
AcDbPolyline
 90
        2
 70
     0
 43
0.0
 10
377593.1875
 20
-4411.4111
 10
377593.75
 20
-4410.8643
  0
LWPOLYLINE
  5
F54
330
1F
100
AcDbEntity
  8
LAYER5
  6
Continuous
 62
     7
100
AcDbPolyline
 90
        2
 70
     0
 43
0.0
 10
377593.75
 20
-4410.8643
 10
377597.0625
 20
-4407.5552
  0
LWPOLYLINE
  5
F58
330
1F
100
AcDbEntity
  8
LAYER5
  6
Continuous
 62
     7
100
AcDbPolyline
 90
        2
 70
     0
 43
0.0
 10
377593.1875
 20
-4402.6777
 10
377596.9063
 20
-4398.9775
  0
LWPOLYLINE
  5
F5C
330
1F
100
AcDbEntity
  8
LAYER5
  6
Continuous
 62
     7
100
AcDbPolyline
 90
        2
 70
     0
 43
0.0
 10
377593.1875
 20
-4393.9448
 10
377594.9375
 20
-4392.2217
  0
LWPOLYLINE
  5
F60
330
1F
100
AcDbEntity
  8
LAYER5
  6
Continuous
 62
     7
100
AcDbPolyline
 90
        2
 70
     0
 43
0.0
 10
377594.9375
 20
-4392.2217
 10
377596.7188
 20
-4390.4258
  0
LWPOLYLINE
  5
F64
330
1F
100
AcDbEntity
  8
LAYER5
  6
Continuous
 62
     7
100
AcDbPolyline
 90
        2
 70
     0
 43
0.0
 10
377593.1875
 20
-4437.6104
 10
377597.5313
 20
-4433.2881
  0
LWPOLYLINE
  5
F68
330
1F
100
AcDbEntity
  8
LAYER5
  6
Continuous
 62
     7
100
AcDbPolyline
 90
        2
 70
     0
 43
0.0
 10
377592.3438
 20
-4447.2002
 10
377594.9688
 20
-4444.5859
  0
LWPOLYLINE
  5
F6C
330
1F
100
AcDbEntity
  8
LAYER5
  6
Continuous
 62
     7
100
AcDbPolyline
 90
        2
 70
     0
 43
0.0
 10
377594.9688
 20
-4444.5859
 10
377597.625
 20
-4441.9458
  0
LWPOLYLINE
  5
F70
330
1F
100
AcDbEntity
  8
LAYER5
  6
Continuous
 62
     7
100
AcDbPolyline
 90
        2
 70
     0
 43
0.0
 10
377592.3438
 20
-4455.9336
 10
377597.625
 20
-4450.6787
  0
LWPOLYLINE
  5
F74
330
1F
100
AcDbEntity
  8
LAYER5
  6
Continuous
 62
     7
100
AcDbPolyline
 90
        2
 70
     0
 43
0.0
 10
377592.3438
 20
-4464.666
 10
377593.1875
 20
-4463.8262
  0
LWPOLYLINE
  5
F78
330
1F
100
AcDbEntity
  8
LAYER5
  6
Continuous
 62
     7
100
AcDbPolyline
 90
        2
 70
     0
 43
0.0
 10
377593.1875
 20
-4463.8262
 10
377597.625
 20
-4459.4121
  0
LWPOLYLINE
  5
F7C
330
1F
100
AcDbEntity
  8
LAYER5
  6
Continuous
 62
     7
100
AcDbPolyline
 90
        6
 70
     0
 43
1.5
 10
377587.875
 20
-4389.4771
 10
377587.875
 20
-4383.4766
 10
377601.875
 20
-4383.4766
 10
377601.875
 20
-4389.4771
 10
377587.875
 20
-4389.4771
 10
377587.875
 20
-4389.4771
  0
LWPOLYLINE
  5
F84
330
1F
100
AcDbEntity
  8
LAYER5
  6
Continuous
 62
     7
100
AcDbPolyline
 90
        4
 70
     0
 43
1.5
 10
377597.875
 20
-4383.5117
 10
377597.875
 20
-4379.6021
 10
377591.875
 20
-4379.6021
 10
377591.875
 20
-4383.5117
  0
LWPOLYLINE
  5
F8A
330
1F
100
AcDbEntity
  8
LAYER5
  6
Continuous
 62
     7
100
AcDbPolyline
 90
        2
 70
     0
 43
1.5
 10
377598.875
 20
-4389.4771
 10
377598.875
 20
-4383.4766
  0
LWPOLYLINE
  5
F8E
330
1F
100
AcDbEntity
  8
LAYER5
  6
Continuous
 62
     7
100
AcDbPolyline
 90
        2
 70
     0
 43
1.5
 10
377590.875
 20
-4389.4771
 10
377590.875
 20
-4383.4766
  0
LWPOLYLINE
  5
F92
330
1F
100
AcDbEntity
  8
LAYER5
  6
Continuous
 62
     7
100
AcDbPolyline
 90
        2
 70
     0
 43
0.0
 10
377596.875
 20
-4382.4766
 10
377590.875
 20
-4388.4766
  0
LWPOLYLINE
  5
F96
330
1F
100
AcDbEntity
  8
LAYER5
  6
Continuous
 62
     7
100
AcDbPolyline
 90
        2
 70
     0
 43
0.0
 10
377600.875
 20
-4387.207
 10
377599.625
 20
-4388.4761
  0
LWPOLYLINE
  5
F9A
330
1F
100
AcDbEntity
  8
LAYER5
  6
Continuous
 62
     7
100
AcDbPolyline
 90
        2
 70
     0
 43
3.0
 10
378155.9063
 20
-5214.0547
 10
378155.9063
 20
-5160.0557
  0
LWPOLYLINE
  5
F9E
330
1F
100
AcDbEntity
  8
LAYER5
  6
Continuous
 62
     7
100
AcDbPolyline
 90
        2
 70
     0
 43
2.0
 10
378153.9688
 20
-5172.1064
 10
378183.8125
 20
-5172.1064
  0
LWPOLYLINE
  5
FA2
330
1F
100
AcDbEntity
  8
LAYER5
  6
Continuous
 62
     7
100
AcDbPolyline
 90
        2
 70
     0
 43
2.0
 10
378155.75
 20
-5177.3691
 10
378183.5313
 20
-5177.3647
  0
LWPOLYLINE
  5
FA6
330
1F
100
AcDbEntity
  8
LAYER5
  6
Continuous
 62
     7
100
AcDbPolyline
 90
        3
 70
     0
 43
2.0
 10
378183.0625
 20
-5171.1895
 10
378229.9375
 20
-5171.1895
 10
378229.9375
 20
-5171.1895
  0
LWPOLYLINE
  5
FAB
330
1F
100
AcDbEntity
  8
LAYER5
  6
Continuous
 62
     7
100
AcDbPolyline
 90
        3
 70
     0
 43
2.0
 10
378183.0625
 20
-5178.2822
 10
378229.9375
 20
-5178.2822
 10
378229.9375
 20
-5178.2822
  0
LWPOLYLINE
  5
FB0
330
1F
100
AcDbEntity
  8
LAYER5
  6
Continuous
 62
     7
100
AcDbPolyline
 90
        3
 70
     0
 43
2.0
 10
378229.1563
 20
-5171.1895
 10
378229.1563
 20
-5178.2822
 10
378229.1563
 20
-5178.2822
  0
LWPOLYLINE
  5
FB5
330
1F
100
AcDbEntity
  8
LAYER5
  6
Continuous
 62
     7
100
AcDbPolyline
 90
        2
 70
     0
 43
0.0
 10
378189.625
 20
-5176.5078
 10
378193.875
 20
-5172.2549
  0
LWPOLYLINE
  5
FB9
330
1F
100
AcDbEntity
  8
LAYER5
  6
Continuous
 62
     7
100
AcDbPolyline
 90
        2
 70
     0
 43
0.0
 10
378180.9063
 20
-5176.5078
 10
378185.0
 20
-5172.416
  0
LWPOLYLINE
  5
FBD
330
1F
100
AcDbEntity
  8
LAYER5
  6
Continuous
 62
     7
100
AcDbPolyline
 90
        2
 70
     0
 43
0.0
 10
378172.1563
 20
-5176.5078
 10
378172.5625
 20
-5176.1182
  0
LWPOLYLINE
  5
FC1
330
1F
100
AcDbEntity
  8
LAYER5
  6
Continuous
 62
     7
100
AcDbPolyline
 90
        2
 70
     0
 43
0.0
 10
378172.5625
 20
-5176.1182
 10
378176.125
 20
-5172.5767
  0
LWPOLYLINE
  5
FC5
330
1F
100
AcDbEntity
  8
LAYER5
  6
Continuous
 62
     7
100
AcDbPolyline
 90
        2
 70
     0
 43
0.0
 10
378163.4375
 20
-5176.5078
 10
378167.2188
 20
-5172.7383
  0
LWPOLYLINE
  5
FC9
330
1F
100
AcDbEntity
  8
LAYER5
  6
Continuous
 62
     7
100
AcDbPolyline
 90
        2
 70
     0
 43
0.0
 10
378154.75
 20
-5176.4868
 10
378156.125
 20
-5175.0762
  0
LWPOLYLINE
  5
FCD
330
1F
100
AcDbEntity
  8
LAYER5
  6
Continuous
 62
     7
100
AcDbPolyline
 90
        2
 70
     0
 43
0.0
 10
378156.125
 20
-5175.0762
 10
378158.3125
 20
-5172.8989
  0
LWPOLYLINE
  5
FD1
330
1F
100
AcDbEntity
  8
LAYER5
  6
Continuous
 62
     7
100
AcDbPolyline
 90
        2
 70
     0
 43
0.0
 10
378198.375
 20
-5176.5078
 10
378202.75
 20
-5172.1045
  0
LWPOLYLINE
  5
FD5
330
1F
100
AcDbEntity
  8
LAYER5
  6
Continuous
 62
     7
100
AcDbPolyline
 90
        2
 70
     0
 43
0.0
 10
378206.25
 20
-5177.3652
 10
378208.4375
 20
-5175.2075
  0
LWPOLYLINE
  5
FD9
330
1F
100
AcDbEntity
  8
LAYER5
  6
Continuous
 62
     7
100
AcDbPolyline
 90
        2
 70
     0
 43
0.0
 10
378208.4375
 20
-5175.2075
 10
378211.5313
 20
-5172.1035
  0
LWPOLYLINE
  5
FDD
330
1F
100
AcDbEntity
  8
LAYER5
  6
Continuous
 62
     7
100
AcDbPolyline
 90
        2
 70
     0
 43
0.0
 10
378215.0
 20
-5177.3667
 10
378220.25
 20
-5172.1055
  0
LWPOLYLINE
  5
FE1
330
1F
100
AcDbEntity
  8
LAYER5
  6
Continuous
 62
     7
100
AcDbPolyline
 90
        2
 70
     0
 43
0.0
 10
378223.75
 20
-5177.3682
 10
378224.125
 20
-5176.9922
  0
LWPOLYLINE
  5
FE5
330
1F
100
AcDbEntity
  8
LAYER5
  6
Continuous
 62
     7
100
AcDbPolyline
 90
        2
 70
     0
 43
0.0
 10
378224.125
 20
-5176.9922
 10
378229.0
 20
-5172.1064
  0
LWPOLYLINE
  5
FE9
330
1F
100
AcDbEntity
  8
LAYER5
  6
Continuous
 62
     7
100
AcDbPolyline
 90
        6
 70
     0
 43
1.5
 10
378153.7813
 20
-5181.8232
 10
378147.7813
 20
-5181.8232
 10
378147.7813
 20
-5167.8223
 10
378153.7813
 20
-5167.8223
 10
378153.7813
 20
-5181.8232
 10
378153.7813
 20
-5181.8232
  0
LWPOLYLINE
  5
FF1
330
1F
100
AcDbEntity
  8
LAYER5
  6
Continuous
 62
     7
100
AcDbPolyline
 90
        4
 70
     0
 43
1.5
 10
378147.8125
 20
-5171.8242
 10
378143.9063
 20
-5171.8242
 10
378143.9063
 20
-5177.8213
 10
378147.8125
 20
-5177.8213
  0
LWPOLYLINE
  5
FF7
330
1F
100
AcDbEntity
  8
LAYER5
  6
Continuous
 62
     7
100
AcDbPolyline
 90
        2
 70
     0
 43
1.5
 10
378153.7813
 20
-5170.8213
 10
378147.7813
 20
-5170.8213
  0
LWPOLYLINE
  5
FFB
330
1F
100
AcDbEntity
  8
LAYER5
  6
Continuous
 62
     7
100
AcDbPolyline
 90
        2
 70
     0
 43
1.5
 10
378153.7813
 20
-5178.8242
 10
378147.7813
 20
-5178.8242
  0
LWPOLYLINE
  5
FFF
330
1F
100
AcDbEntity
  8
LAYER5
  6
Continuous
 62
     7
100
AcDbPolyline
 90
        2
 70
     0
 43
0.0
 10
378146.75
 20
-5172.8203
 10
378152.7813
 20
-5178.8389
  0
LWPOLYLINE
  5
1003
330
1F
100
AcDbEntity
  8
LAYER5
  6
Continuous
 62
     7
100
AcDbPolyline
 90
        2
 70
     0
 43
0.0
 10
378151.5
 20
-5168.8213
 10
378152.7813
 20
-5170.0981
  0
LWPOLYLINE
  5
1007
330
1F
100
AcDbEntity
  8
LAYER5
  6
Continuous
 62
     7
100
AcDbPolyline
 90
        2
 70
     0
 43
2.0
 10
378626.9688
 20
-4371.1279
 10
378626.9688
 20
-4232.5039
  0
LWPOLYLINE
  5
100B
330
1F
100
AcDbEntity
  8
LAYER5
  6
Continuous
 62
     7
100
AcDbPolyline
 90
        2
 70
     0
 43
2.0
 10
378572.9063
 20
-4371.1279
 10
378572.9063
 20
-4232.4316
  0
LWPOLYLINE
  5
100F
330
1F
100
AcDbEntity
  8
LAYER5
  6
Continuous
 62
     7
100
AcDbPolyline
 90
        2
 70
     0
 43
3.0
 10
378627.5
 20
-4438.1284
 10
378627.5
 20
-4438.1284
  0
LWPOLYLINE
  5
1013
330
1F
100
AcDbEntity
  8
LAYER5
  6
Continuous
 62
     7
100
AcDbPolyline
 90
        2
 70
     0
 43
3.0
 10
378605.4375
 20
-4407.1279
 10
378600.2813
 20
-4418.3799
  0
ARC
  5
1017
330
1F
100
AcDbEntity
  8
LAYER5
  6
Continuous
 62
     7
100
AcDbCircle
 10
378605.7188
 20
-4420.8945
 30
0.0
 40
5.9908
100
AcDbArc
 50
155.1812
 51
203.0419
  0
LWPOLYLINE
  5
1018
330
1F
100
AcDbEntity
  8
LAYER5
  6
Continuous
 62
     7
100
AcDbPolyline
 90
        2
 70
     0
 43
3.0
 10
378600.2188
 20
-4423.2227
 10
378606.5
 20
-4438.127
  0
LWPOLYLINE
  5
101C
330
1F
100
AcDbEntity
  8
LAYER5
  6
Continuous
 62
     7
100
AcDbPolyline
 90
        2
 70
     0
 43
3.0
 10
378627.5
 20
-4438.1284
 10
378572.9063
 20
-4438.1284
  0
ARC
  5
1020
330
1F
100
AcDbEntity
  8
LAYER5
  6
Continuous
 62
     7
100
AcDbCircle
 10
378633.375
 20
-4392.7754
 30
0.0
 40
5.9881
100
AcDbArc
 50
138.7191
 51
180.0
  0
LWPOLYLINE
  5
1021
330
1F
100
AcDbEntity
  8
LAYER5
  6
Continuous
 62
     7
100
AcDbPolyline
 90
        2
 70
     0
 43
3.0
 10
378628.875
 20
-4388.8247
 10
378633.9063
 20
-4383.0674
  0
LWPOLYLINE
  5
1025
330
1F
100
AcDbEntity
  8
LAYER5
  6
Continuous
 62
     7
100
AcDbPolyline
 90
        2
 70
     0
 43
3.0
 10
378565.3125
 20
-4384.3315
 10
378570.2813
 20
-4387.1113
  0
ARC
  5
1029
330
1F
100
AcDbEntity
  8
LAYER5
  6
Continuous
 62
     7
100
AcDbCircle
 10
378567.375
 20
-4392.3491
 30
0.0
 40
6.0
100
AcDbArc
 50
0.0
 51
61.0391
  0
LWPOLYLINE
  5
102A
330
1F
100
AcDbEntity
  8
LAYER5
  6
Continuous
 62
     7
100
AcDbPolyline
 90
        2
 70
     0
 43
3.0
 10
378572.9063
 20
-4438.1284
 10
378572.9063
 20
-4386.752
  0
LWPOLYLINE
  5
102E
330
1F
100
AcDbEntity
  8
LAYER5
  6
Continuous
 62
     7
100
AcDbPolyline
 90
        2
 70
     0
 43
2.0
 10
378572.9063
 20
-4386.752
 10
378572.9063
 20
-4382.752
  0
LWPOLYLINE
  5
1032
330
1F
100
AcDbEntity
  8
LAYER5
  6
Continuous
 62
     7
100
AcDbPolyline
 90
        2
 70
     0
 43
2.0
 10
378572.9063
 20
-4382.752
 10
378572.9063
 20
-4371.1279
  0
LWPOLYLINE
  5
1036
330
1F
100
AcDbEntity
  8
LAYER5
  6
Continuous
 62
     7
100
AcDbPolyline
 90
        2
 70
     0
 43
3.0
 10
378626.9688
 20
-4437.5039
 10
378626.9688
 20
-4386.752
  0
LWPOLYLINE
  5
103A
330
1F
100
AcDbEntity
  8
LAYER5
  6
Continuous
 62
     7
100
AcDbPolyline
 90
        2
 70
     0
 43
2.0
 10
378626.9688
 20
-4386.752
 10
378626.9688
 20
-4381.752
  0
LWPOLYLINE
  5
103E
330
1F
100
AcDbEntity
  8
LAYER5
  6
Continuous
 62
     7
100
AcDbPolyline
 90
        2
 70
     0
 43
2.0
 10
378626.9688
 20
-4381.752
 10
378626.9688
 20
-4371.1279
  0
LWPOLYLINE
  5
1042
330
1F
100
AcDbEntity
  8
LAYER5
  6
Continuous
 62
     7
100
AcDbPolyline
 90
       38
 70
     0
 43
2.0
 10
378630.1563
 20
-4453.9019
 10
378630.25
 20
-4453.4307
 10
378630.4375
 20
-4452.9873
 10
378630.6875
 20
-4452.582
 10
378630.9375
 20
-4452.2256
 10
378631.1875
 20
-4451.9336
 10
378631.5
 20
-4451.709
 10
378631.8438
 20
-4451.564
 10
378632.1563
 20
-4451.5005
 10
378632.5
 20
-4451.5225
 10
378632.8125
 20
-4451.625
 10
378633.0625
 20
-4451.8086
 10
378633.3125
 20
-4452.0664
 10
378633.5
 20
-4452.3892
 10
378633.6875
 20
-4452.7715
 10
378633.75
 20
-4453.1978
 10
378633.8125
 20
-4453.6563
 10
378633.8125
 20
-4454.1313
 10
378633.75
 20
-4454.6133
 10
378633.625
 20
-4455.083
 10
378633.4375
 20
-4455.5273
 10
378633.25
 20
-4455.9331
 10
378632.9688
 20
-4456.2881
 10
378632.6875
 20
-4456.5811
 10
378632.375
 20
-4456.8042
 10
378632.0625
 20
-4456.9492
 10
378631.7188
 20
-4457.0127
 10
378631.4063
 20
-4456.9932
 10
378631.0938
 20
-4456.8896
 10
378630.8125
 20
-4456.7061
 10
378630.5625
 20
-4456.4482
 10
378630.375
 20
-4456.124
 10
378630.2188
 20
-4455.7432
 10
378630.125
 20
-4455.3174
 10
378630.0625
 20
-4454.8584
 10
378630.0938
 20
-4454.3818
 10
378630.1563
 20
-4453.9019
 10
378630.1563
 20
-4453.9019
  0
LWPOLYLINE
  5
106A
330
1F
100
AcDbEntity
  8
LAYER5
  6
Continuous
 62
     7
100
AcDbPolyline
 90
        2
 70
     0
 43
3.0
 10
378604.9688
 20
-4478.7744
 10
378610.3438
 20
-4463.2119
  0
ARC
  5
106E
330
1F
100
AcDbEntity
  8
LAYER5
  6
Continuous
 62
     7
100
AcDbCircle
 10
378605.0625
 20
-4459.8418
 30
0.0
 40
6.2623
100
AcDbArc
 50
330.2607
 51
27.77
  0
LWPOLYLINE
  5
106F
330
1F
100
AcDbEntity
  8
LAYER5
  6
Continuous
 62
     7
100
AcDbPolyline
 90
        2
 70
     0
 43
3.0
 10
378610.5625
 20
-4456.9658
 10
378604.2813
 20
-4438.5532
  0
LWPOLYLINE
  5
1073
330
1F
100
AcDbEntity
  8
LAYER5
  6
Continuous
 62
     7
100
AcDbPolyline
 90
        2
 70
     0
 43
3.0
 10
378625.3438
 20
-4437.6377
 10
378629.5
 20
-4453.2695
  0
LWPOLYLINE
  5
1077
330
1F
100
AcDbEntity
  8
LAYER5
  6
Continuous
 62
     7
100
AcDbPolyline
 90
        2
 70
     0
 43
3.0
 10
378568.0313
 20
-4456.1299
 10
378572.8125
 20
-4437.2715
  0
LWPOLYLINE
  5
107B
330
1F
100
AcDbEntity
  8
LAYER5
  6
Continuous
 62
     7
100
AcDbPolyline
 90
        3
 70
     0
 43
0.0
 10
377976.3125
 20
-5111.6807
 10
378017.5
 20
-5111.6807
 10
378046.1875
 20
-5159.2441
  0
LWPOLYLINE
  5
1080
330
1F
100
AcDbEntity
  8
LAYER5
  6
Continuous
 62
     7
100
AcDbPolyline
 90
        4
 70
     0
 43
0.0
 10
378037.5625
 20
-5135.2544
 10
378046.1875
 20
-5159.2441
 10
378029.0
 20
-5140.4189
 10
378037.5625
 20
-5135.2544
  0
TEXT
  5
1086
330
1F
100
AcDbEntity
  8
LAYER5
 62
     7
100
AcDbText
 10
377897.4375
 20
-5332.9746
 30
0.0
 40
25.0
  1
both sides
 41
0.7
 72
     5
 11
378054.9375
 21
-5332.9746
 31
0.0
100
AcDbText
  0
LWPOLYLINE
  5
1087
330
1F
100
AcDbEntity
  8
LAYER5
  6
Continuous
 62
     7
100
AcDbPolyline
 90
        3
 70
     0
 43
0.0
 10
378024.625
 20
-5288.187
 10
378087.3438
 20
-5288.187
 10
378157.2188
 20
-5216.5273
  0
LWPOLYLINE
  5
108C
330
1F
100
AcDbEntity
  8
LAYER5
  6
Continuous
 62
     7
100
AcDbPolyline
 90
        4
 70
     0
 43
0.0
 10
378136.1875
 20
-5230.936
 10
378157.2188
 20
-5216.5273
 10
378143.3438
 20
-5237.917
 10
378136.1875
 20
-5230.936
  0
LWPOLYLINE
  5
1092
330
1F
100
AcDbEntity
  8
LAYER5
  6
Continuous
 62
     7
100
AcDbPolyline
 90
        3
 70
     0
 43
0.0
 10
378085.5625
 20
-5288.187
 10
378085.5625
 20
-5117.9951
 10
378157.2188
 20
-5152.0332
  0
LWPOLYLINE
  5
1097
330
1F
100
AcDbEntity
  8
LAYER5
  6
Continuous
 62
     7
100
AcDbPolyline
 90
        4
 70
     0
 43
0.0
 10
378136.7813
 20
-5136.79
 10
378157.2188
 20
-5152.0332
 10
378132.5
 20
-5145.8228
 10
378136.7813
 20
-5136.79
  0
LWPOLYLINE
  5
109D
330
1F
100
AcDbEntity
  8
LAYER5
  6
Continuous
 62
     7
100
AcDbPolyline
 90
        3
 70
     0
 43
0.0
 10
378148.25
 20
-5003.3398
 10
378187.6875
 20
-5003.3398
 10
378187.6875
 20
-5169.9482
  0
LWPOLYLINE
  5
10A2
330
1F
100
AcDbEntity
  8
LAYER5
  6
Continuous
 62
     7
100
AcDbPolyline
 90
        4
 70
     0
 43
0.0
 10
378192.6875
 20
-5144.9482
 10
378187.6875
 20
-5169.9482
 10
378182.6875
 20
-5144.9482
 10
378192.6875
 20
-5144.9482
  0
LWPOLYLINE
  5
10A8
330
1F
100
AcDbEntity
  8
LAYER5
  6
Continuous
 62
     7
100
AcDbPolyline
 90
        3
 70
     0
 43
0.0
 10
378409.8125
 20
-5144.8677
 10
378379.375
 20
-5144.8677
 10
378305.9063
 20
-5164.5742
  0
LWPOLYLINE
  5
10AD
330
1F
100
AcDbEntity
  8
LAYER5
  6
Continuous
 62
     7
100
AcDbPolyline
 90
        4
 70
     0
 43
0.0
 10
378331.3438
 20
-5162.9268
 10
378305.9063
 20
-5164.5742
 10
378328.75
 20
-5153.2681
 10
378331.3438
 20
-5162.9268
  0
LWPOLYLINE
  5
10B3
330
1F
100
AcDbEntity
  8
LAYER5
  6
Continuous
 62
     7
100
AcDbPolyline
 90
        3
 70
     0
 43
0.0
 10
378325.625
 20
-5324.0166
 10
378289.7813
 20
-5324.0166
 10
378252.1563
 20
-5268.4805
  0
LWPOLYLINE
  5
10B8
330
1F
100
AcDbEntity
  8
LAYER5
  6
Continuous
 62
     7
100
AcDbPolyline
 90
        4
 70
     0
 43
0.0
 10
378262.0313
 20
-5291.9824
 10
378252.1563
 20
-5268.4805
 10
378270.3125
 20
-5286.3735
 10
378262.0313
 20
-5291.9824
  0
TEXT
  5
10BE
330
1F
100
AcDbEntity
  8
LAYER5
 62
     7
100
AcDbText
 10
377958.375
 20
-5590.9492
 30
0.0
 40
25.0
  1
At Jamb - Reinforced Concrete Mansonry 
 41
0.6775371771458387
 72
     5
 11
378607.625
 21
-5590.9492
 31
0.0
100
AcDbText
  0
TEXT
  5
10BF
330
1F
100
AcDbEntity
  8
LAYER5
 62
     7
100
AcDbText
 10
377351.0625
 20
-4791.9438
 30
0.0
 40
25.0
  1
At sill - Reinforced Concrete Mansonry 
 41
0.6685079105291871
 72
     5
 11
377963.75
 21
-4791.9438
 31
0.0
100
AcDbText
  0
TEXT
  5
10C0
330
1F
100
AcDbEntity
  8
LAYER5
 62
     7
100
AcDbText
 10
377309.875
 20
-4370.9434
 30
0.0
 40
25.0
  1
both sides 
 41
0.6936108422071636
 72
     5
 11
377489.0
 21
-4370.9434
 31
0.0
100
AcDbText
  0
LWPOLYLINE
  5
10C1
330
1F
100
AcDbEntity
  8
LAYER5
  6
Continuous
 62
     7
100
AcDbPolyline
 90
        2
 70
     0
 43
0.0
 10
377647.625
 20
-4274.7954
 10
377659.2188
 20
-4274.7954
  0
LWPOLYLINE
  5
10C5
330
1F
100
AcDbEntity
  8
LAYER5
  6
Continuous
 62
     7
100
AcDbPolyline
 90
        2
 70
     0
 43
0.0
 10
377654.625
 20
-4269.8618
 10
377657.5625
 20
-4269.8618
  0
LWPOLYLINE
  5
10C9
330
1F
100
AcDbEntity
  8
LAYER5
  6
Continuous
 62
     7
100
AcDbPolyline
 90
        2
 70
     0
 43
0.0
 10
377640.3438
 20
-4278.0845
 10
377647.625
 20
-4278.0845
  0
LWPOLYLINE
  5
10CD
330
1F
100
AcDbEntity
  8
LAYER5
  6
Continuous
 62
     7
100
AcDbPolyline
 90
        2
 70
     0
 43
0.0
 10
377645.9688
 20
-4276.4399
 10
377645.9688
 20
-4274.8491
  0
LWPOLYLINE
  5
10D1
330
1F
100
AcDbEntity
  8
LAYER5
  6
Continuous
 62
     7
100
AcDbPolyline
 90
        2
 70
     0
 43
0.0
 10
377659.125
 20
-4278.0581
 10
377659.125
 20
-4276.4399
  0
LWPOLYLINE
  5
10D5
330
1F
100
AcDbEntity
  8
LAYER5
  6
Continuous
 62
     7
100
AcDbPolyline
 90
        2
 70
     0
 43
0.0
 10
377654.2188
 20
-4278.688
 10
377654.2188
 20
-4276.4399
  0
LWPOLYLINE
  5
10D9
330
1F
100
AcDbEntity
  8
LAYER5
  6
Continuous
 62
     7
100
AcDbPolyline
 90
        2
 70
     0
 43
0.0
 10
377649.2813
 20
-4279.3218
 10
377649.2813
 20
-4276.4399
  0
LWPOLYLINE
  5
10DD
330
1F
100
AcDbEntity
  8
LAYER5
  6
Continuous
 62
     7
100
AcDbPolyline
 90
        2
 70
     0
 43
0.0
 10
377668.375
 20
-4383.5703
 10
377671.5313
 20
-4383.5703
  0
LWPOLYLINE
  5
10E1
330
1F
100
AcDbEntity
  8
LAYER5
  6
Continuous
 62
     7
100
AcDbPolyline
 90
        2
 70
     0
 43
0.0
 10
377668.375
 20
-4378.6367
 10
377676.875
 20
-4378.6367
  0
LWPOLYLINE
  5
10E5
330
1F
100
AcDbEntity
  8
LAYER5
  6
Continuous
 62
     7
100
AcDbPolyline
 90
        2
 70
     0
 43
0.0
 10
377660.5625
 20
-4391.793
 10
377662.6563
 20
-4391.793
  0
LWPOLYLINE
  5
10E9
330
1F
100
AcDbEntity
  8
LAYER5
  6
Continuous
 62
     7
100
AcDbPolyline
 90
        2
 70
     0
 43
0.0
 10
377668.8438
 20
-4373.7031
 10
377671.9688
 20
-4373.7031
  0
LWPOLYLINE
  5
10ED
330
1F
100
AcDbEntity
  8
LAYER5
  6
Continuous
 62
     7
100
AcDbPolyline
 90
        2
 70
     0
 43
0.0
 10
377662.8125
 20
-4386.8594
 10
377667.9688
 20
-4386.8594
  0
LWPOLYLINE
  5
10F1
330
1F
100
AcDbEntity
  8
LAYER5
  6
Continuous
 62
     7
100
AcDbPolyline
 90
        2
 70
     0
 43
0.0
 10
377666.7188
 20
-4385.2148
 10
377666.7188
 20
-4378.3496
  0
LWPOLYLINE
  5
10F5
330
1F
100
AcDbEntity
  8
LAYER5
  6
Continuous
 62
     7
100
AcDbPolyline
 90
        2
 70
     0
 43
0.0
 10
377738.6875
 20
-4403.7871
 10
377742.3125
 20
-4403.7871
  0
LWPOLYLINE
  5
10F9
330
1F
100
AcDbEntity
  8
LAYER5
  6
Continuous
 62
     7
100
AcDbPolyline
 90
        2
 70
     0
 43
0.0
 10
377738.6875
 20
-4398.8535
 10
377748.0938
 20
-4398.8535
  0
LWPOLYLINE
  5
10FD
330
1F
100
AcDbEntity
  8
LAYER5
  6
Continuous
 62
     7
100
AcDbPolyline
 90
        2
 70
     0
 43
0.0
 10
377730.5938
 20
-4412.0098
 10
377732.6875
 20
-4412.0098
  0
LWPOLYLINE
  5
1101
330
1F
100
AcDbEntity
  8
LAYER5
  6
Continuous
 62
     7
100
AcDbPolyline
 90
        2
 70
     0
 43
0.0
 10
377739.75
 20
-4393.9199
 10
377742.4375
 20
-4393.9199
  0
LWPOLYLINE
  5
1105
330
1F
100
AcDbEntity
  8
LAYER5
  6
Continuous
 62
     7
100
AcDbPolyline
 90
        2
 70
     0
 43
0.0
 10
377733.0938
 20
-4407.0762
 10
377738.4688
 20
-4407.0762
  0
LWPOLYLINE
  5
1109
330
1F
100
AcDbEntity
  8
LAYER5
  6
Continuous
 62
     7
100
AcDbPolyline
 90
        2
 70
     0
 43
0.0
 10
377737.0313
 20
-4405.4316
 10
377737.0313
 20
-4399.2954
  0
LWPOLYLINE
  5
110D
330
1F
100
AcDbEntity
  8
LAYER5
  6
Continuous
 62
     7
100
AcDbPolyline
 90
        2
 70
     0
 43
0.0
 10
377740.3438
 20
-4405.4648
 10
377740.3438
 20
-4405.4316
  0
LWPOLYLINE
  5
1111
330
1F
100
AcDbEntity
  8
LAYER5
  6
Continuous
 62
     7
100
AcDbPolyline
 90
        2
 70
     0
 43
0.0
 10
377715.4688
 20
-4462.3887
 10
377727.0938
 20
-4462.3887
  0
LWPOLYLINE
  5
1115
330
1F
100
AcDbEntity
  8
LAYER5
  6
Continuous
 62
     7
100
AcDbPolyline
 90
        2
 70
     0
 43
0.0
 10
377713.8125
 20
-4462.6055
 10
377713.8125
 20
-4457.4414
  0
LWPOLYLINE
  5
1119
330
1F
100
AcDbEntity
  8
LAYER5
  6
Continuous
 62
     7
100
AcDbPolyline
 90
        2
 70
     0
 43
0.0
 10
377708.9063
 20
-4459.2256
 10
377708.9063
 20
-4456.4033
  0
LWPOLYLINE
  5
111D
330
1F
100
AcDbEntity
  8
LAYER5
  6
Continuous
 62
     7
100
AcDbPolyline
 90
        2
 70
     0
 43
0.0
 10
377722.0625
 20
-4468.2881
 10
377722.0625
 20
-4464.0332
  0
LWPOLYLINE
  5
1121
330
1F
100
AcDbEntity
  8
LAYER5
  6
Continuous
 62
     7
100
AcDbPolyline
 90
        2
 70
     0
 43
0.0
 10
377717.125
 20
-4464.8872
 10
377717.125
 20
-4464.0332
  0
LWPOLYLINE
  5
1125
330
1F
100
AcDbEntity
  8
LAYER5
  6
Continuous
 62
     7
100
AcDbPolyline
 90
        2
 70
     0
 43
0.0
 10
377580.3125
 20
-4441.9429
 10
377584.25
 20
-4441.9429
  0
LWPOLYLINE
  5
1129
330
1F
100
AcDbEntity
  8
LAYER5
  6
Continuous
 62
     7
100
AcDbPolyline
 90
        2
 70
     0
 43
0.0
 10
377568.5313
 20
-4445.2319
 10
377573.9375
 20
-4445.2319
  0
LWPOLYLINE
  5
112D
330
1F
100
AcDbEntity
  8
LAYER5
  6
Continuous
 62
     7
100
AcDbPolyline
 90
        2
 70
     0
 43
0.0
 10
377578.6563
 20
-4443.5874
 10
377578.6563
 20
-4437.9233
  0
LWPOLYLINE
  5
1131
330
1F
100
AcDbEntity
  8
LAYER5
  6
Continuous
 62
     7
100
AcDbPolyline
 90
        2
 70
     0
 43
0.0
 10
377573.75
 20
-4443.5874
 10
377573.75
 20
-4437.502
  0
LWPOLYLINE
  5
1135
330
1F
100
AcDbEntity
  8
LAYER5
  6
Continuous
 62
     7
100
AcDbPolyline
 90
        2
 70
     0
 43
0.0
 10
377568.8125
 20
-4443.5874
 10
377568.8125
 20
-4437.0776
  0
LWPOLYLINE
  5
1139
330
1F
100
AcDbEntity
  8
LAYER5
  6
Continuous
 62
     7
100
AcDbPolyline
 90
        2
 70
     0
 43
0.0
 10
377562.75
 20
-4356.1831
 10
377565.0625
 20
-4356.1831
  0
LWPOLYLINE
  5
113D
330
1F
100
AcDbEntity
  8
LAYER5
  6
Continuous
 62
     7
100
AcDbPolyline
 90
        2
 70
     0
 43
0.0
 10
377558.7813
 20
-4359.4717
 10
377562.75
 20
-4359.4717
  0
LWPOLYLINE
  5
1141
330
1F
100
AcDbEntity
  8
LAYER5
  6
Continuous
 62
     7
100
AcDbPolyline
 90
        2
 70
     0
 43
0.0
 10
377561.0938
 20
-4357.8271
 10
377561.0938
 20
-4353.0107
  0
LWPOLYLINE
  5
1145
330
1F
100
AcDbEntity
  8
LAYER5
  6
Continuous
 62
     7
100
AcDbPolyline
 90
        2
 70
     0
 43
0.0
 10
377556.1875
 20
-4357.8271
 10
377556.1875
 20
-4349.0801
  0
LWPOLYLINE
  5
1149
330
1F
100
AcDbEntity
  8
LAYER5
  6
Continuous
 62
     7
100
AcDbPolyline
 90
        2
 70
     0
 43
0.0
 10
377569.3438
 20
-4362.5205
 10
377569.3438
 20
-4359.6206
  0
LWPOLYLINE
  5
114D
330
1F
100
AcDbEntity
  8
LAYER5
  6
Continuous
 62
     7
100
AcDbPolyline
 90
        2
 70
     0
 43
0.0
 10
377551.25
 20
-4357.2988
 10
377551.25
 20
-4355.6348
  0
LWPOLYLINE
  5
1151
330
1F
100
AcDbEntity
  8
LAYER5
  6
Continuous
 62
     7
100
AcDbPolyline
 90
        2
 70
     0
 43
0.0
 10
377564.4063
 20
-4361.0957
 10
377564.4063
 20
-4357.8271
  0
LWPOLYLINE
  5
1155
330
1F
100
AcDbEntity
  8
LAYER5
  6
Continuous
 62
     7
100
AcDbPolyline
 90
        2
 70
     0
 43
0.0
 10
377626.5625
 20
-4381.4312
 10
377630.75
 20
-4381.4312
  0
LWPOLYLINE
  5
1159
330
1F
100
AcDbEntity
  8
LAYER5
  6
Continuous
 62
     7
100
AcDbPolyline
 90
        2
 70
     0
 43
0.0
 10
377626.5625
 20
-4376.4976
 10
377631.0313
 20
-4376.4976
  0
LWPOLYLINE
  5
115D
330
1F
100
AcDbEntity
  8
LAYER5
  6
Continuous
 62
     7
100
AcDbPolyline
 90
        2
 70
     0
 43
0.0
 10
377626.5625
 20
-4371.564
 10
377631.3438
 20
-4371.564
  0
LWPOLYLINE
  5
1161
330
1F
100
AcDbEntity
  8
LAYER5
  6
Continuous
 62
     7
100
AcDbPolyline
 90
        2
 70
     0
 43
0.0
 10
377624.9063
 20
-4379.5073
 10
377624.9063
 20
-4369.9194
  0
LWPOLYLINE
  5
1165
330
1F
100
AcDbEntity
  8
LAYER5
  6
Continuous
 62
     7
100
AcDbPolyline
 90
        2
 70
     0
 43
0.0
 10
377628.2188
 20
-4389.0293
 10
377628.2188
 20
-4383.0757
  0
LWPOLYLINE
  5
1169
330
1F
100
AcDbEntity
  8
LAYER5
  6
Continuous
 62
     7
100
AcDbPolyline
 90
        2
 70
     0
 43
0.0
 10
377628.2188
 20
-4369.9194
 10
377628.2188
 20
-4369.1602
  0
TEXT
  5
116D
330
1F
100
AcDbEntity
  8
LAYER5
 62
     7
100
AcDbText
 10
377838.3438
 20
-3820.9553
 30
0.0
 40
25.0
  1
both sides 
 41
0.6937316553728043
 72
     5
 11
378017.5
 21
-3820.9553
 31
0.0
100
AcDbText
  0
LWPOLYLINE
  5
116E
330
1F
100
AcDbEntity
  8
LAYER5
  6
Continuous
 62
     7
100
AcDbPolyline
 90
        3
 70
     0
 43
0.0
 10
378021.0625
 20
-3772.585
 10
378218.125
 20
-3770.7935
 10
378193.0625
 20
-3742.1296
  0
LWPOLYLINE
  5
1173
330
1F
100
AcDbEntity
  8
LAYER5
  6
Continuous
 62
     7
100
AcDbPolyline
 90
        4
 70
     0
 43
0.0
 10
378205.75
 20
-3764.2412
 10
378193.0625
 20
-3742.1296
 10
378213.2813
 20
-3757.6589
 10
378205.75
 20
-3764.2412
  0
LWPOLYLINE
  5
1179
330
1F
100
AcDbEntity
  8
LAYER5
  6
Continuous
 62
     7
100
AcDbPolyline
 90
        2
 70
     0
 43
0.0
 10
378114.75
 20
-3751.45
 10
378116.1563
 20
-3751.45
  0
LWPOLYLINE
  5
117D
330
1F
100
AcDbEntity
  8
LAYER5
  6
Continuous
 62
     7
100
AcDbPolyline
 90
        2
 70
     0
 43
0.0
 10
378116.3125
 20
-3746.5168
 10
378125.5625
 20
-3746.5168
  0
LWPOLYLINE
  5
1181
330
1F
100
AcDbEntity
  8
LAYER5
  6
Continuous
 62
     7
100
AcDbPolyline
 90
        2
 70
     0
 43
0.0
 10
378104.0938
 20
-3754.7388
 10
378109.875
 20
-3754.7388
  0
LWPOLYLINE
  5
1185
330
1F
100
AcDbEntity
  8
LAYER5
  6
Continuous
 62
     7
100
AcDbPolyline
 90
        2
 70
     0
 43
0.0
 10
378113.0938
 20
-3753.0522
 10
378113.0938
 20
-3746.8
  0
LWPOLYLINE
  5
1189
330
1F
100
AcDbEntity
  8
LAYER5
  6
Continuous
 62
     7
100
AcDbPolyline
 90
        2
 70
     0
 43
0.0
 10
378108.1875
 20
-3753.0947
 10
378108.1875
 20
-3747.2334
  0
LWPOLYLINE
  5
118D
330
1F
100
AcDbEntity
  8
LAYER5
  6
Continuous
 62
     7
100
AcDbPolyline
 90
        2
 70
     0
 43
0.0
 10
378103.25
 20
-3751.8447
 10
378103.25
 20
-3747.6694
  0
LWPOLYLINE
  5
1191
330
1F
100
AcDbEntity
  8
LAYER5
  6
Continuous
 62
     7
100
AcDbPolyline
 90
        2
 70
     0
 43
0.0
 10
378197.1875
 20
-3792.1523
 10
378208.8438
 20
-3792.1523
  0
LWPOLYLINE
  5
1195
330
1F
100
AcDbEntity
  8
LAYER5
  6
Continuous
 62
     7
100
AcDbPolyline
 90
        2
 70
     0
 43
0.0
 10
378195.5313
 20
-3791.96
 10
378195.5313
 20
-3787.2205
  0
LWPOLYLINE
  5
1199
330
1F
100
AcDbEntity
  8
LAYER5
  6
Continuous
 62
     7
100
AcDbPolyline
 90
        2
 70
     0
 43
0.0
 10
378190.625
 20
-3789.5859
 10
378190.625
 20
-3786.9465
  0
LWPOLYLINE
  5
119D
330
1F
100
AcDbEntity
  8
LAYER5
  6
Continuous
 62
     7
100
AcDbPolyline
 90
        2
 70
     0
 43
0.0
 10
378203.7813
 20
-3795.9519
 10
378203.7813
 20
-3793.7969
  0
LWPOLYLINE
  5
11A1
330
1F
100
AcDbEntity
  8
LAYER5
  6
Continuous
 62
     7
100
AcDbPolyline
 90
        2
 70
     0
 43
0.0
 10
378162.0625
 20
-3714.4849
 10
378174.4375
 20
-3714.4846
  0
LWPOLYLINE
  5
11A5
330
1F
100
AcDbEntity
  8
LAYER5
  6
Continuous
 62
     7
100
AcDbPolyline
 90
        2
 70
     0
 43
0.0
 10
378160.4063
 20
-3716.1294
 10
378160.4063
 20
-3712.8657
  0
LWPOLYLINE
  5
11A9
330
1F
100
AcDbEntity
  8
LAYER5
  6
Continuous
 62
     7
100
AcDbPolyline
 90
        2
 70
     0
 43
0.0
 10
378173.5625
 20
-3719.3079
 10
378173.5625
 20
-3716.1294
  0
LWPOLYLINE
  5
11AD
330
1F
100
AcDbEntity
  8
LAYER5
  6
Continuous
 62
     7
100
AcDbPolyline
 90
        2
 70
     0
 43
0.0
 10
378155.5
 20
-3716.1294
 10
378155.5
 20
-3714.062
  0
LWPOLYLINE
  5
11B1
330
1F
100
AcDbEntity
  8
LAYER5
  6
Continuous
 62
     7
100
AcDbPolyline
 90
        2
 70
     0
 43
0.0
 10
378168.6563
 20
-3718.5393
 10
378168.6563
 20
-3716.1294
  0
LWPOLYLINE
  5
11B5
330
1F
100
AcDbEntity
  8
LAYER5
  6
Continuous
 62
     7
100
AcDbPolyline
 90
        2
 70
     0
 43
0.0
 10
378163.7188
 20
-3717.7656
 10
378163.7188
 20
-3716.1294
  0
LWPOLYLINE
  5
11B9
330
1F
100
AcDbEntity
  8
LAYER5
  6
Continuous
 62
     7
100
AcDbPolyline
 90
        2
 70
     0
 43
0.0
 10
378249.75
 20
-3618.7561
 10
378261.4688
 20
-3618.7561
  0
LWPOLYLINE
  5
11BD
330
1F
100
AcDbEntity
  8
LAYER5
  6
Continuous
 62
     7
100
AcDbPolyline
 90
        2
 70
     0
 43
0.0
 10
378253.9375
 20
-3613.8225
 10
378259.0313
 20
-3613.8225
  0
LWPOLYLINE
  5
11C1
330
1F
100
AcDbEntity
  8
LAYER5
  6
Continuous
 62
     7
100
AcDbPolyline
 90
        2
 70
     0
 43
0.0
 10
378243.25
 20
-3622.0449
 10
378249.75
 20
-3622.0452
  0
LWPOLYLINE
  5
11C5
330
1F
100
AcDbEntity
  8
LAYER5
  6
Continuous
 62
     7
100
AcDbPolyline
 90
        2
 70
     0
 43
0.0
 10
378248.0938
 20
-3620.4009
 10
378248.0938
 20
-3618.3257
  0
LWPOLYLINE
  5
11C9
330
1F
100
AcDbEntity
  8
LAYER5
  6
Continuous
 62
     7
100
AcDbPolyline
 90
        2
 70
     0
 43
0.0
 10
378256.3438
 20
-3621.4741
 10
378256.3438
 20
-3620.4009
  0
LWPOLYLINE
  5
11CD
330
1F
100
AcDbEntity
  8
LAYER5
  6
Continuous
 62
     7
100
AcDbPolyline
 90
        2
 70
     0
 43
0.0
 10
378251.4063
 20
-3622.7954
 10
378251.4063
 20
-3620.4009
  0
LWPOLYLINE
  5
11D1
330
1F
100
AcDbEntity
  8
LAYER5
  6
Continuous
 62
     7
100
AcDbPolyline
 90
        2
 70
     0
 43
0.0
 10
378116.75
 20
-3637.3892
 10
378120.5938
 20
-3637.3892
  0
LWPOLYLINE
  5
11D5
330
1F
100
AcDbEntity
  8
LAYER5
  6
Continuous
 62
     7
100
AcDbPolyline
 90
        2
 70
     0
 43
0.0
 10
378105.0
 20
-3640.678
 10
378110.375
 20
-3640.6777
  0
LWPOLYLINE
  5
11D9
330
1F
100
AcDbEntity
  8
LAYER5
  6
Continuous
 62
     7
100
AcDbPolyline
 90
        2
 70
     0
 43
0.0
 10
378115.0938
 20
-3639.0337
 10
378115.0938
 20
-3633.3394
  0
LWPOLYLINE
  5
11DD
330
1F
100
AcDbEntity
  8
LAYER5
  6
Continuous
 62
     7
100
AcDbPolyline
 90
        2
 70
     0
 43
0.0
 10
378110.1875
 20
-3639.0337
 10
378110.1875
 20
-3632.9319
  0
LWPOLYLINE
  5
11E1
330
1F
100
AcDbEntity
  8
LAYER5
  6
Continuous
 62
     7
100
AcDbPolyline
 90
        2
 70
     0
 43
0.0
 10
378105.25
 20
-3639.0337
 10
378105.25
 20
-3632.522
  0
LWPOLYLINE
  5
11E5
330
1F
100
AcDbEntity
  8
LAYER5
  6
Continuous
 62
     7
100
AcDbPolyline
 90
        2
 70
     0
 43
0.0
 10
378640.6875
 20
-4279.3877
 10
378652.2813
 20
-4279.3877
  0
LWPOLYLINE
  5
11E9
330
1F
100
AcDbEntity
  8
LAYER5
  6
Continuous
 62
     7
100
AcDbPolyline
 90
        2
 70
     0
 43
0.0
 10
378647.6563
 20
-4274.4541
 10
378650.625
 20
-4274.4541
  0
LWPOLYLINE
  5
11ED
330
1F
100
AcDbEntity
  8
LAYER5
  6
Continuous
 62
     7
100
AcDbPolyline
 90
        2
 70
     0
 43
0.0
 10
378633.4063
 20
-4282.6768
 10
378640.6875
 20
-4282.6768
  0
LWPOLYLINE
  5
11F1
330
1F
100
AcDbEntity
  8
LAYER5
  6
Continuous
 62
     7
100
AcDbPolyline
 90
        2
 70
     0
 43
0.0
 10
378639.0313
 20
-4281.0322
 10
378639.0313
 20
-4279.4253
  0
LWPOLYLINE
  5
11F5
330
1F
100
AcDbEntity
  8
LAYER5
  6
Continuous
 62
     7
100
AcDbPolyline
 90
        2
 70
     0
 43
0.0
 10
378652.1875
 20
-4282.6543
 10
378652.1875
 20
-4281.0322
  0
LWPOLYLINE
  5
11F9
330
1F
100
AcDbEntity
  8
LAYER5
  6
Continuous
 62
     7
100
AcDbPolyline
 90
        2
 70
     0
 43
0.0
 10
378647.2813
 20
-4283.2842
 10
378647.2813
 20
-4281.0322
  0
LWPOLYLINE
  5
11FD
330
1F
100
AcDbEntity
  8
LAYER5
  6
Continuous
 62
     7
100
AcDbPolyline
 90
        2
 70
     0
 43
0.0
 10
378642.3438
 20
-4283.9185
 10
378642.3438
 20
-4281.0322
  0
LWPOLYLINE
  5
1201
330
1F
100
AcDbEntity
  8
LAYER5
  6
Continuous
 62
     7
100
AcDbPolyline
 90
        2
 70
     0
 43
0.0
 10
378646.4375
 20
-4445.7266
 10
378658.125
 20
-4445.7261
  0
LWPOLYLINE
  5
1205
330
1F
100
AcDbEntity
  8
LAYER5
  6
Continuous
 62
     7
100
AcDbPolyline
 90
        2
 70
     0
 43
0.0
 10
378651.2813
 20
-4440.7925
 10
378655.875
 20
-4440.7925
  0
LWPOLYLINE
  5
1209
330
1F
100
AcDbEntity
  8
LAYER5
  6
Continuous
 62
     7
100
AcDbPolyline
 90
        2
 70
     0
 43
0.0
 10
378639.8125
 20
-4449.0151
 10
378646.4375
 20
-4449.0151
  0
LWPOLYLINE
  5
120D
330
1F
100
AcDbEntity
  8
LAYER5
  6
Continuous
 62
     7
100
AcDbPolyline
 90
        2
 70
     0
 43
0.0
 10
378644.7813
 20
-4447.3706
 10
378644.7813
 20
-4445.4365
  0
LWPOLYLINE
  5
1211
330
1F
100
AcDbEntity
  8
LAYER5
  6
Continuous
 62
     7
100
AcDbPolyline
 90
        2
 70
     0
 43
0.0
 10
378657.9375
 20
-4447.6206
 10
378657.9375
 20
-4447.3706
  0
LWPOLYLINE
  5
1215
330
1F
100
AcDbEntity
  8
LAYER5
  6
Continuous
 62
     7
100
AcDbPolyline
 90
        2
 70
     0
 43
0.0
 10
378653.0313
 20
-4448.7563
 10
378653.0313
 20
-4447.3706
  0
LWPOLYLINE
  5
1219
330
1F
100
AcDbEntity
  8
LAYER5
  6
Continuous
 62
     7
100
AcDbPolyline
 90
        2
 70
     0
 43
0.0
 10
378648.0938
 20
-4449.8994
 10
378648.0938
 20
-4447.3706
  0
LWPOLYLINE
  5
121D
330
1F
100
AcDbEntity
  8
LAYER5
  6
Continuous
 62
     7
100
AcDbPolyline
 90
        2
 70
     0
 43
0.0
 10
378698.625
 20
-4473.7954
 10
378710.9688
 20
-4473.7954
  0
LWPOLYLINE
  5
1221
330
1F
100
AcDbEntity
  8
LAYER5
  6
Continuous
 62
     7
100
AcDbPolyline
 90
        2
 70
     0
 43
0.0
 10
378696.9688
 20
-4475.4399
 10
378696.9688
 20
-4472.3369
  0
LWPOLYLINE
  5
1225
330
1F
100
AcDbEntity
  8
LAYER5
  6
Continuous
 62
     7
100
AcDbPolyline
 90
        2
 70
     0
 43
0.0
 10
378710.125
 20
-4478.6255
 10
378710.125
 20
-4475.4399
  0
LWPOLYLINE
  5
1229
330
1F
100
AcDbEntity
  8
LAYER5
  6
Continuous
 62
     7
100
AcDbPolyline
 90
        2
 70
     0
 43
0.0
 10
378692.0625
 20
-4475.4399
 10
378692.0625
 20
-4473.6001
  0
LWPOLYLINE
  5
122D
330
1F
100
AcDbEntity
  8
LAYER5
  6
Continuous
 62
     7
100
AcDbPolyline
 90
        2
 70
     0
 43
0.0
 10
378705.2188
 20
-4477.9189
 10
378705.2188
 20
-4475.4399
  0
LWPOLYLINE
  5
1231
330
1F
100
AcDbEntity
  8
LAYER5
  6
Continuous
 62
     7
100
AcDbPolyline
 90
        2
 70
     0
 43
0.0
 10
378700.2813
 20
-4477.208
 10
378700.2813
 20
-4475.4399
  0
LWPOLYLINE
  5
1235
330
1F
100
AcDbEntity
  8
LAYER5
  6
Continuous
 62
     7
100
AcDbPolyline
 90
        2
 70
     0
 43
0.0
 10
378492.625
 20
-4446.354
 10
378496.2813
 20
-4446.354
  0
LWPOLYLINE
  5
1239
330
1F
100
AcDbEntity
  8
LAYER5
  6
Continuous
 62
     7
100
AcDbPolyline
 90
        2
 70
     0
 43
0.0
 10
378492.625
 20
-4441.4204
 10
378493.1875
 20
-4441.4204
  0
LWPOLYLINE
  5
123D
330
1F
100
AcDbEntity
  8
LAYER5
  6
Continuous
 62
     7
100
AcDbPolyline
 90
        2
 70
     0
 43
0.0
 10
378492.4063
 20
-4449.6431
 10
378492.625
 20
-4449.6431
  0
LWPOLYLINE
  5
1241
330
1F
100
AcDbEntity
  8
LAYER5
  6
Continuous
 62
     7
100
AcDbPolyline
 90
        2
 70
     0
 43
0.0
 10
378490.9688
 20
-4447.9985
 10
378490.9688
 20
-4437.8794
  0
LWPOLYLINE
  5
1245
330
1F
100
AcDbEntity
  8
LAYER5
  6
Continuous
 62
     7
100
AcDbPolyline
 90
        2
 70
     0
 43
0.0
 10
378486.0625
 20
-4445.1543
 10
378486.0625
 20
-4438.792
  0
LWPOLYLINE
  5
1249
330
1F
100
AcDbEntity
  8
LAYER5
  6
Continuous
 62
     7
100
AcDbPolyline
 90
        2
 70
     0
 43
0.0
 10
378499.2188
 20
-4454.4678
 10
378499.2188
 20
-4451.0513
  0
LWPOLYLINE
  5
124D
330
1F
100
AcDbEntity
  8
LAYER5
  6
Continuous
 62
     7
100
AcDbPolyline
 90
        2
 70
     0
 43
0.0
 10
378494.2813
 20
-4450.9727
 10
378494.2813
 20
-4447.9985
  0
TEXT
  5
127E
330
1F
100
AcDbEntity
  8
0
  6
Continuous
 62
     7
370
    30
100
AcDbText
 10
377279.8764552513
 20
-5489.202521703145
 30
0.0
 40
60.0
  1
Reinforced Concrete Masonry Manafactured By Island Block & Paving
 50
359.7284572537509
 41
0.508191207345639
  7
_TCW_TXTSTY_4
 72
     5
 11
379170.3265155783
 21
-5498.162027076924
 31
0.0
100
AcDbText
1001
TCAD
1000
TCW40_TEXT
1002
{
1000
txt.shx
1070
     0
1070
  1025
1002
}
  0
ENDSEC
  0
SECTION
  2
OBJECTS
  0
DICTIONARY
  5
C
330
0
100
AcDbDictionary
281
     1
  3
ACAD_COLOR
350
6C
  3
ACAD_GROUP
350
D
  3
ACAD_LAYOUT
350
1A
  3
ACAD_MATERIAL
350
6B
  3
ACAD_MLEADERSTYLE
350
1299
  3
ACAD_MLINESTYLE
350
17
  3
ACAD_PLOTSETTINGS
350
19
  3
ACAD_PLOTSTYLENAME
350
E
  3
ACAD_SCALELIST
350
99
  3
ACAD_TABLESTYLE
350
92
  3
AcDbVariableDictionary
350
59
  0
DICTIONARY
  5
1298
330
1F
100
AcDbDictionary
280
     1
281
     1
  0
DICTIONARY
  5
6C
102
{ACAD_REACTORS
330
C
102
}
330
C
100
AcDbDictionary
281
     1
  0
DICTIONARY
  5
D
102
{ACAD_REACTORS
330
C
102
}
330
C
100
AcDbDictionary
281
     1
  0
DICTIONARY
  5
1A
102
{ACAD_REACTORS
330
C
102
}
330
C
100
AcDbDictionary
281
     1
  3
Layout1
350
74
  3
Model
350
22
  0
DICTIONARY
  5
6B
102
{ACAD_REACTORS
330
C
102
}
330
C
100
AcDbDictionary
281
     1
  0
DICTIONARY
  5
1299
102
{ACAD_REACTORS
330
C
102
}
330
C
100
AcDbDictionary
281
     1
  0
DICTIONARY
  5
17
102
{ACAD_REACTORS
330
C
102
}
330
C
100
AcDbDictionary
281
     1
  3
Standard
350
18
  0
DICTIONARY
  5
19
102
{ACAD_REACTORS
330
C
102
}
330
C
100
AcDbDictionary
281
     1
  0
ACDBDICTIONARYWDFLT
  5
E
102
{ACAD_REACTORS
330
C
102
}
330
C
100
AcDbDictionary
281
     1
  3
Normal
350
F
100
AcDbDictionaryWithDefault
340
F
  0
DICTIONARY
  5
99
102
{ACAD_REACTORS
330
C
102
}
330
C
100
AcDbDictionary
281
     1
  3
A0
350
1257
  3
A1
350
1258
  3
A2
350
1259
  3
A3
350
125A
  3
A4
350
125B
  3
A5
350
125C
  3
A6
350
125D
  3
A7
350
125E
  3
A8
350
125F
  3
A9
350
1260
  3
B0
350
1261
  3
B1
350
1262
  3
B2
350
1263
  3
B3
350
1264
  3
B4
350
1265
  3
B5
350
1266
  3
B6
350
1267
  3
B7
350
1268
  3
B8
350
1269
  3
B9
350
126A
  3
C0
350
126B
  3
C1
350
126C
  3
C2
350
126D
  3
C3
350
126E
  3
C4
350
126F
  3
C5
350
1270
  3
C6
350
1271
  3
C7
350
1272
  3
C8
350
1273
  3
C9
350
1274
  3
D0
350
1275
  3
D1
350
1276
  3
D2
350
1277
  0
DICTIONARY
  5
92
102
{ACAD_REACTORS
330
C
102
}
330
C
100
AcDbDictionary
281
     1
  3
Standard
350
93
  0
DICTIONARY
  5
59
102
{ACAD_REACTORS
330
C
102
}
330
C
100
AcDbDictionary
281
     1
  3
CANNOSCALE
350
129A
  3
CTABLESTYLE
350
98
  3
DIMASSOC
350
1279
  3
HIDETEXT
350
5E
  0
LAYOUT
  5
74
102
{ACAD_REACTORS
330
1A
102
}
330
1A
100
AcDbPlotSettings
  1

  2
none_device
  4
ISO_C5_(229.00_x_162.00_MM)
  6

 40
0.0
 41
0.0
 42
0.0
 43
0.0
 44
229.0
 45
162.0
 46
0.0
 47
0.0
 48
0.0
 49
0.0
140
0.0
141
0.0
142
1.0
143
1.0
 70
   688
 72
     1
 73
     0
 74
     5
  7

 75
    16
 76
     0
 77
     2
 78
   300
147
1.0
148
0.0
149
0.0
100
AcDbLayout
  1
Layout1
 70
     1
 71
     1
 10
0.0
 20
0.0
 11
12.0
 21
9.0
 12
0.0
 22
0.0
 32
0.0
 14
1.000000000000000E+20
 24
1.000000000000000E+20
 34
1.000000000000000E+20
 15
-1.000000000000000E+20
 25
-1.000000000000000E+20
 35
-1.000000000000000E+20
146
0.0
 13
0.0
 23
0.0
 33
0.0
 16
1.0
 26
0.0
 36
0.0
 17
0.0
 27
1.0
 37
0.0
 76
     0
330
73
  0
LAYOUT
  5
22
102
{ACAD_REACTORS
330
1A
102
}
330
1A
100
AcDbPlotSettings
  1

  2
none_device
  4
ISO_C5_(229.00_x_162.00_MM)
  6

 40
0.0
 41
0.0
 42
0.0
 43
0.0
 44
229.0
 45
162.0
 46
0.0
 47
0.0
 48
0.0
 49
0.0
140
0.0
141
0.0
142
1.0
143
1.0
 70
 11952
 72
     1
 73
     0
 74
     0
  7

 75
    16
 76
     0
 77
     2
 78
   300
147
1.0
148
0.0
149
0.0
100
AcDbLayout
  1
Model
 70
     1
 71
     0
 10
377180.0
 20
-5595.9492
 11
379153.0313
 21
-3568.5352
 12
0.0
 22
0.0
 32
0.0
 14
377180.0
 24
-5599.1992
 34
0.0
 15
379438.1515941878
 25
-3573.5351
 35
0.0
146
0.0
 13
0.0
 23
0.0
 33
0.0
 16
1.0
 26
0.0
 36
0.0
 17
0.0
 27
1.0
 37
0.0
 76
     0
330
1F
331
97
  0
MLINESTYLE
  5
18
102
{ACAD_REACTORS
330
17
102
}
330
17
100
AcDbMlineStyle
  2
Standard
 70
     0
  3

 62
   256
 51
90.0
 52
90.0
 71
     2
 49
0.5
 62
   256
  6
BYLAYER
 49
-0.5
 62
   256
  6
BYLAYER
  0
ACDBPLACEHOLDER
  5
F
102
{ACAD_REACTORS
330
E
102
}
330
E
  0
SCALE
  5
1257
102
{ACAD_REACTORS
330
99
102
}
330
99
100
AcDbScale
 70
     0
300
1:1
140
1.0
141
1.0
290
     1
  0
SCALE
  5
1258
102
{ACAD_REACTORS
330
99
102
}
330
99
100
AcDbScale
 70
     0
300
1:2
140
1.0
141
2.0
290
     0
  0
SCALE
  5
1259
102
{ACAD_REACTORS
330
99
102
}
330
99
100
AcDbScale
 70
     0
300
1:4
140
1.0
141
4.0
290
     0
  0
SCALE
  5
125A
102
{ACAD_REACTORS
330
99
102
}
330
99
100
AcDbScale
 70
     0
300
1:5
140
1.0
141
5.0
290
     0
  0
SCALE
  5
125B
102
{ACAD_REACTORS
330
99
102
}
330
99
100
AcDbScale
 70
     0
300
1:8
140
1.0
141
8.0
290
     0
  0
SCALE
  5
125C
102
{ACAD_REACTORS
330
99
102
}
330
99
100
AcDbScale
 70
     0
300
1:10
140
1.0
141
10.0
290
     0
  0
SCALE
  5
125D
102
{ACAD_REACTORS
330
99
102
}
330
99
100
AcDbScale
 70
     0
300
1:16
140
1.0
141
16.0
290
     0
  0
SCALE
  5
125E
102
{ACAD_REACTORS
330
99
102
}
330
99
100
AcDbScale
 70
     0
300
1:20
140
1.0
141
20.0
290
     0
  0
SCALE
  5
125F
102
{ACAD_REACTORS
330
99
102
}
330
99
100
AcDbScale
 70
     0
300
1:30
140
1.0
141
30.0
290
     0
  0
SCALE
  5
1260
102
{ACAD_REACTORS
330
99
102
}
330
99
100
AcDbScale
 70
     0
300
1:40
140
1.0
141
40.0
290
     0
  0
SCALE
  5
1261
102
{ACAD_REACTORS
330
99
102
}
330
99
100
AcDbScale
 70
     0
300
1:50
140
1.0
141
50.0
290
     0
  0
SCALE
  5
1262
102
{ACAD_REACTORS
330
99
102
}
330
99
100
AcDbScale
 70
     0
300
1:100
140
1.0
141
100.0
290
     0
  0
SCALE
  5
1263
102
{ACAD_REACTORS
330
99
102
}
330
99
100
AcDbScale
 70
     0
300
2:1
140
2.0
141
1.0
290
     0
  0
SCALE
  5
1264
102
{ACAD_REACTORS
330
99
102
}
330
99
100
AcDbScale
 70
     0
300
4:1
140
4.0
141
1.0
290
     0
  0
SCALE
  5
1265
102
{ACAD_REACTORS
330
99
102
}
330
99
100
AcDbScale
 70
     0
300
8:1
140
8.0
141
1.0
290
     0
  0
SCALE
  5
1266
102
{ACAD_REACTORS
330
99
102
}
330
99
100
AcDbScale
 70
     0
300
10:1
140
10.0
141
1.0
290
     0
  0
SCALE
  5
1267
102
{ACAD_REACTORS
330
99
102
}
330
99
100
AcDbScale
 70
     0
300
100:1
140
100.0
141
1.0
290
     0
  0
SCALE
  5
1268
102
{ACAD_REACTORS
330
99
102
}
330
99
100
AcDbScale
 70
     0
300
1/128" = 1'-0"
140
0.0078125
141
12.0
290
     0
  0
SCALE
  5
1269
102
{ACAD_REACTORS
330
99
102
}
330
99
100
AcDbScale
 70
     0
300
1/64" = 1'-0"
140
0.015625
141
12.0
290
     0
  0
SCALE
  5
126A
102
{ACAD_REACTORS
330
99
102
}
330
99
100
AcDbScale
 70
     0
300
1/32" = 1'-0"
140
0.03125
141
12.0
290
     0
  0
SCALE
  5
126B
102
{ACAD_REACTORS
330
99
102
}
330
99
100
AcDbScale
 70
     0
300
1/16" = 1'-0"
140
0.0625
141
12.0
290
     0
  0
SCALE
  5
126C
102
{ACAD_REACTORS
330
99
102
}
330
99
100
AcDbScale
 70
     0
300
3/32" = 1'-0"
140
0.09375
141
12.0
290
     0
  0
SCALE
  5
126D
102
{ACAD_REACTORS
330
99
102
}
330
99
100
AcDbScale
 70
     0
300
1/8" = 1'-0"
140
0.125
141
12.0
290
     0
  0
SCALE
  5
126E
102
{ACAD_REACTORS
330
99
102
}
330
99
100
AcDbScale
 70
     0
300
3/16" = 1'-0"
140
0.1875
141
12.0
290
     0
  0
SCALE
  5
126F
102
{ACAD_REACTORS
330
99
102
}
330
99
100
AcDbScale
 70
     0
300
1/4" = 1'-0"
140
0.25
141
12.0
290
     0
  0
SCALE
  5
1270
102
{ACAD_REACTORS
330
99
102
}
330
99
100
AcDbScale
 70
     0
300
3/8" = 1'-0"
140
0.375
141
12.0
290
     0
  0
SCALE
  5
1271
102
{ACAD_REACTORS
330
99
102
}
330
99
100
AcDbScale
 70
     0
300
1/2" = 1'-0"
140
0.5
141
12.0
290
     0
  0
SCALE
  5
1272
102
{ACAD_REACTORS
330
99
102
}
330
99
100
AcDbScale
 70
     0
300
3/4" = 1'-0"
140
0.75
141
12.0
290
     0
  0
SCALE
  5
1273
102
{ACAD_REACTORS
330
99
102
}
330
99
100
AcDbScale
 70
     0
300
1" = 1'-0"
140
1.0
141
12.0
290
     0
  0
SCALE
  5
1274
102
{ACAD_REACTORS
330
99
102
}
330
99
100
AcDbScale
 70
     0
300
1-1/2" = 1'-0"
140
1.5
141
12.0
290
     0
  0
SCALE
  5
1275
102
{ACAD_REACTORS
330
99
102
}
330
99
100
AcDbScale
 70
     0
300
3" = 1'-0"
140
3.0
141
12.0
290
     0
  0
SCALE
  5
1276
102
{ACAD_REACTORS
330
99
102
}
330
99
100
AcDbScale
 70
     0
300
6" = 1'-0"
140
6.0
141
12.0
290
     0
  0
SCALE
  5
1277
102
{ACAD_REACTORS
330
99
102
}
330
99
100
AcDbScale
 70
     0
300
1'-0" = 1'-0"
140
12.0
141
12.0
290
     0
  0
TABLESTYLE
  5
93
102
{ACAD_REACTORS
330
92
102
}
330
92
100
AcDbTableStyle
  3
Standard
 70
     0
 71
     0
 40
0.06
 41
0.06
280
     0
281
     0
  7
Standard
140
0.18
170
     2
 62
     0
 63
     7
283
     0
 90
      512
 91
        0
  1

274
    -2
284
     1
 64
     0
275
    -2
285
     1
 65
     0
276
    -2
286
     1
 66
     0
277
    -2
287
     1
 67
     0
278
    -2
288
     1
 68
     0
279
    -2
289
     1
 69
     0
  7
Standard
140
0.25
170
     5
 62
     0
 63
     7
283
     0
 90
      512
 91
        0
  1

274
    -2
284
     1
 64
     0
275
    -2
285
     1
 65
     0
276
    -2
286
     1
 66
     0
277
    -2
287
     1
 67
     0
278
    -2
288
     1
 68
     0
279
    -2
289
     1
 69
     0
  7
Standard
140
0.18
170
     5
 62
     0
 63
     7
283
     0
 90
      512
 91
        0
  1

274
    -2
284
     1
 64
     0
275
    -2
285
     1
 65
     0
276
    -2
286
     1
 66
     0
277
    -2
287
     1
 67
     0
278
    -2
288
     1
 68
     0
279
    -2
289
     1
 69
     0
  0
DICTIONARYVAR
  5
129A
102
{ACAD_REACTORS
330
59
102
}
330
59
100
DictionaryVariables
280
     0
  1
1:1
  0
DICTIONARYVAR
  5
98
102
{ACAD_REACTORS
330
59
102
}
330
59
100
DictionaryVariables
280
     0
  1
Standard
  0
DICTIONARYVAR
  5
1279
102
{ACAD_REACTORS
330
59
102
}
330
59
100
DictionaryVariables
280
     0
  1
2
  0
DICTIONARYVAR
  5
5E
102
{ACAD_REACTORS
330
59
102
}
330
59
100
DictionaryVariables
280
     0
  1
1
  0
ENDSEC
  0
EOF
