  0
SECTION
  2
HEADER
  9
$ACADVER
  1
AC1021
  9
$ACADMAINTVER
 70
    25
  9
$DWGCODEPAGE
  3
ANSI_1252
  9
$LASTSAVEDBY
  1
jbassett
  9
$INSBASE
 10
0.0
 20
0.0
 30
0.0
  9
$EXTMIN
 10
7905021.179525072
 20
-285745.1907
 30
0.0
  9
$EXTMAX
 10
7908388.1443
 20
-284046.655313446
 30
0.0
  9
$LIMMIN
 10
7906154.3182
 20
-285751.2047
  9
$LIMMAX
 10
7908388.1443
 20
-284061.8025
  9
$ORTHOMODE
 70
     0
  9
$REGENMODE
 70
     1
  9
$FILLMODE
 70
     1
  9
$QTEXTMODE
 70
     0
  9
$MIRRTEXT
 70
     1
  9
$LTSCALE
 40
1.0
  9
$ATTMODE
 70
     1
  9
$TEXTSIZE
 40
0.2
  9
$TRACEWID
 40
0.05
  9
$TEXTSTYLE
  7
Standard
  9
$CLAYER
  8
0
  9
$CELTYPE
  6
ByLayer
  9
$CECOLOR
 62
   256
  9
$CELTSCALE
 40
1.0
  9
$DISPSILH
 70
     0
  9
$DIMSCALE
 40
1.0
  9
$DIMASZ
 40
0.18
  9
$DIMEXO
 40
0.0625
  9
$DIMDLI
 40
0.38
  9
$DIMRND
 40
0.0
  9
$DIMDLE
 40
0.0
  9
$DIMEXE
 40
0.18
  9
$DIMTP
 40
0.0
  9
$DIMTM
 40
0.0
  9
$DIMTXT
 40
0.18
  9
$DIMCEN
 40
0.09
  9
$DIMTSZ
 40
0.0
  9
$DIMTOL
 70
     0
  9
$DIMLIM
 70
     0
  9
$DIMTIH
 70
     1
  9
$DIMTOH
 70
     1
  9
$DIMSE1
 70
     0
  9
$DIMSE2
 70
     0
  9
$DIMTAD
 70
     0
  9
$DIMZIN
 70
     0
  9
$DIMBLK
  1

  9
$DIMASO
 70
     1
  9
$DIMSHO
 70
     0
  9
$DIMPOST
  1

  9
$DIMAPOST
  1

  9
$DIMALT
 70
     0
  9
$DIMALTD
 70
     2
  9
$DIMALTF
 40
25.4
  9
$DIMLFAC
 40
1.0
  9
$DIMTOFL
 70
     0
  9
$DIMTVP
 40
0.0
  9
$DIMTIX
 70
     0
  9
$DIMSOXD
 70
     0
  9
$DIMSAH
 70
     0
  9
$DIMBLK1
  1

  9
$DIMBLK2
  1

  9
$DIMSTYLE
  2
Standard
  9
$DIMCLRD
 70
     0
  9
$DIMCLRE
 70
     0
  9
$DIMCLRT
 70
     0
  9
$DIMTFAC
 40
1.0
  9
$DIMGAP
 40
0.09
  9
$DIMJUST
 70
     0
  9
$DIMSD1
 70
     0
  9
$DIMSD2
 70
     0
  9
$DIMTOLJ
 70
     1
  9
$DIMTZIN
 70
     0
  9
$DIMALTZ
 70
     0
  9
$DIMALTTZ
 70
     0
  9
$DIMUPT
 70
     0
  9
$DIMDEC
 70
     4
  9
$DIMTDEC
 70
     4
  9
$DIMALTU
 70
     2
  9
$DIMALTTD
 70
     2
  9
$DIMTXSTY
  7
Standard
  9
$DIMAUNIT
 70
     0
  9
$DIMADEC
 70
     0
  9
$DIMALTRND
 40
0.0
  9
$DIMAZIN
 70
     0
  9
$DIMDSEP
 70
    46
  9
$DIMATFIT
 70
     3
  9
$DIMFRAC
 70
     0
  9
$DIMLDRBLK
  1

  9
$DIMLUNIT
 70
     2
  9
$DIMLWD
 70
    -2
  9
$DIMLWE
 70
    -2
  9
$DIMTMOVE
 70
     2
  9
$DIMFXL
 40
1.0
  9
$DIMFXLON
 70
     0
  9
$DIMJOGANG
 40
0.7853981633974483
  9
$DIMTFILL
 70
     0
  9
$DIMTFILLCLR
 70
     0
  9
$DIMARCSYM
 70
     0
  9
$DIMLTYPE
  6

  9
$DIMLTEX1
  6

  9
$DIMLTEX2
  6

  9
$LUNITS
 70
     2
  9
$LUPREC
 70
     4
  9
$SKETCHINC
 40
0.1
  9
$FILLETRAD
 40
0.0
  9
$AUNITS
 70
     0
  9
$AUPREC
 70
     0
  9
$MENU
  1
.
  9
$ELEVATION
 40
0.0
  9
$PELEVATION
 40
0.0
  9
$THICKNESS
 40
0.0
  9
$LIMCHECK
 70
     0
  9
$CHAMFERA
 40
0.0
  9
$CHAMFERB
 40
0.0
  9
$CHAMFERC
 40
1.0
  9
$CHAMFERD
 40
0.0
  9
$SKPOLY
 70
     0
  9
$TDCREATE
 40
2453354.133792488
  9
$TDUCREATE
 40
2453353.717125822
  9
$TDUPDATE
 40
2455686.597064144
  9
$TDUUPDATE
 40
2455686.180397477
  9
$TDINDWG
 40
0.0440046412
  9
$TDUSRTIMER
 40
0.0440046412
  9
$USRTIMER
 70
     1
  9
$ANGBASE
 50
0.0
  9
$ANGDIR
 70
     0
  9
$PDMODE
 70
     0
  9
$PDSIZE
 40
0.0
  9
$PLINEWID
 40
0.0
  9
$SPLFRAME
 70
     0
  9
$SPLINETYPE
 70
     6
  9
$SPLINESEGS
 70
     8
  9
$HANDSEED
  5
127C
  9
$SURFTAB1
 70
     6
  9
$SURFTAB2
 70
     6
  9
$SURFTYPE
 70
     6
  9
$SURFU
 70
     6
  9
$SURFV
 70
     6
  9
$UCSBASE
  2

  9
$UCSNAME
  2

  9
$UCSORG
 10
0.0
 20
0.0
 30
0.0
  9
$UCSXDIR
 10
1.0
 20
0.0
 30
0.0
  9
$UCSYDIR
 10
0.0
 20
1.0
 30
0.0
  9
$UCSORTHOREF
  2

  9
$UCSORTHOVIEW
 70
     0
  9
$UCSORGTOP
 10
0.0
 20
0.0
 30
0.0
  9
$UCSORGBOTTOM
 10
0.0
 20
0.0
 30
0.0
  9
$UCSORGLEFT
 10
0.0
 20
0.0
 30
0.0
  9
$UCSORGRIGHT
 10
0.0
 20
0.0
 30
0.0
  9
$UCSORGFRONT
 10
0.0
 20
0.0
 30
0.0
  9
$UCSORGBACK
 10
0.0
 20
0.0
 30
0.0
  9
$PUCSBASE
  2

  9
$PUCSNAME
  2

  9
$PUCSORG
 10
0.0
 20
0.0
 30
0.0
  9
$PUCSXDIR
 10
1.0
 20
0.0
 30
0.0
  9
$PUCSYDIR
 10
0.0
 20
1.0
 30
0.0
  9
$PUCSORTHOREF
  2

  9
$PUCSORTHOVIEW
 70
     0
  9
$PUCSORGTOP
 10
0.0
 20
0.0
 30
0.0
  9
$PUCSORGBOTTOM
 10
0.0
 20
0.0
 30
0.0
  9
$PUCSORGLEFT
 10
0.0
 20
0.0
 30
0.0
  9
$PUCSORGRIGHT
 10
0.0
 20
0.0
 30
0.0
  9
$PUCSORGFRONT
 10
0.0
 20
0.0
 30
0.0
  9
$PUCSORGBACK
 10
0.0
 20
0.0
 30
0.0
  9
$USERI1
 70
     0
  9
$USERI2
 70
     0
  9
$USERI3
 70
     0
  9
$USERI4
 70
     0
  9
$USERI5
 70
     0
  9
$USERR1
 40
0.0
  9
$USERR2
 40
0.0
  9
$USERR3
 40
0.0
  9
$USERR4
 40
0.0
  9
$USERR5
 40
0.0
  9
$WORLDVIEW
 70
     1
  9
$SHADEDGE
 70
     3
  9
$SHADEDIF
 70
    70
  9
$TILEMODE
 70
     1
  9
$MAXACTVP
 70
    64
  9
$PINSBASE
 10
0.0
 20
0.0
 30
0.0
  9
$PLIMCHECK
 70
     0
  9
$PEXTMIN
 10
1.000000000000000E+20
 20
1.000000000000000E+20
 30
1.000000000000000E+20
  9
$PEXTMAX
 10
-1.000000000000000E+20
 20
-1.000000000000000E+20
 30
-1.000000000000000E+20
  9
$PLIMMIN
 10
0.0
 20
0.0
  9
$PLIMMAX
 10
12.0
 20
9.0
  9
$UNITMODE
 70
     0
  9
$VISRETAIN
 70
     1
  9
$PLINEGEN
 70
     0
  9
$PSLTSCALE
 70
     1
  9
$TREEDEPTH
 70
  3020
  9
$CMLSTYLE
  2
Standard
  9
$CMLJUST
 70
     0
  9
$CMLSCALE
 40
1.0
  9
$PROXYGRAPHICS
 70
     1
  9
$MEASUREMENT
 70
     0
  9
$CELWEIGHT
370
    -1
  9
$ENDCAPS
280
     0
  9
$JOINSTYLE
280
     0
  9
$LWDISPLAY
290
     0
  9
$INSUNITS
 70
     0
  9
$HYPERLINKBASE
  1

  9
$STYLESHEET
  1

  9
$XEDIT
290
     0
  9
$CEPSNTYPE
380
     0
  9
$PSTYLEMODE
290
     1
  9
$FINGERPRINTGUID
  2
{ADB41B78-D549-489D-B02B-1615BD26BD8B}
  9
$VERSIONGUID
  2
{FAEB1C32-E019-11D5-929B-00C0DF256EC4}
  9
$EXTNAMES
290
     1
  9
$PSVPSCALE
 40
0.0
  9
$OLESTARTUP
290
     0
  9
$SORTENTS
280
   127
  9
$INDEXCTL
280
     0
  9
$HIDETEXT
280
     1
  9
$XCLIPFRAME
290
     0
  9
$HALOGAP
280
     0
  9
$OBSCOLOR
 70
   257
  9
$OBSLTYPE
280
     0
  9
$INTERSECTIONDISPLAY
280
     0
  9
$INTERSECTIONCOLOR
 70
   257
  9
$DIMASSOC
280
     2
  9
$PROJECTNAME
  1

  9
$CAMERADISPLAY
290
     0
  9
$LENSLENGTH
 40
50.0
  9
$CAMERAHEIGHT
 40
0.0
  9
$STEPSPERSEC
 40
2.0
  9
$STEPSIZE
 40
6.0
  9
$3DDWFPREC
 40
2.0
  9
$PSOLWIDTH
 40
0.25
  9
$PSOLHEIGHT
 40
4.0
  9
$LOFTANG1
 40
1.570796326794897
  9
$LOFTANG2
 40
1.570796326794897
  9
$LOFTMAG1
 40
0.0
  9
$LOFTMAG2
 40
0.0
  9
$LOFTPARAM
 70
     7
  9
$LOFTNORMALS
280
     1
  9
$LATITUDE
 40
37.795
  9
$LONGITUDE
 40
-122.394
  9
$NORTHDIRECTION
 40
0.0
  9
$TIMEZONE
 70
 -8000
  9
$LIGHTGLYPHDISPLAY
280
     1
  9
$TILEMODELIGHTSYNCH
280
     1
  9
$SOLIDHIST
280
     1
  9
$SHOWHIST
280
     1
  9
$DWFFRAME
280
     2
  9
$DGNFRAME
280
     2
  9
$REALWORLDSCALE
290
     1
  9
$INTERFERECOLOR
 62
   256
  9
$CSHADOW
280
     0
  9
$SHADOWPLANELOCATION
 40
0.0
  0
ENDSEC
  0
SECTION
  2
CLASSES
  0
CLASS
  1
ACDBDICTIONARYWDFLT
  2
AcDbDictionaryWithDefault
  3
ObjectDBX Classes
 90
        0
 91
        4
280
     0
281
     0
  0
CLASS
  1
ACDBPLACEHOLDER
  2
AcDbPlaceHolder
  3
ObjectDBX Classes
 90
        0
 91
        1
280
     0
281
     0
  0
CLASS
  1
LAYOUT
  2
AcDbLayout
  3
ObjectDBX Classes
 90
        0
 91
        1
280
     0
281
     0
  0
CLASS
  1
DICTIONARYVAR
  2
AcDbDictionaryVar
  3
ObjectDBX Classes
 90
        0
 91
        4
280
     0
281
     0
  0
CLASS
  1
TABLESTYLE
  2
AcDbTableStyle
  3
ObjectDBX Classes
 90
     4095
 91
        4
280
     0
281
     0
  0
CLASS
  1
SCALE
  2
AcDbScale
  3
ObjectDBX Classes
 90
     1153
 91
        4
280
     0
281
     0
  0
ENDSEC
  0
SECTION
  2
TABLES
  0
TABLE
  2
VPORT
  5
8
330
0
100
AcDbSymbolTable
 70
     2
  0
VPORT
  5
97
330
8
100
AcDbSymbolTableRecord
100
AcDbViewportTableRecord
  2
*Active
 70
     0
 10
0.0
 20
0.0
 11
1.0
 21
1.0
 12
7906704.661912536
 22
-284895.9230067229
 13
0.0
 23
0.0
 14
0.5
 24
0.5
 15
0.5
 25
0.5
 16
0.0
 26
0.0
 36
1.0
 17
0.0
 27
0.0
 37
0.0
 40
1732.506094285104
 41
1.972972972850329
 42
50.0
 43
0.0
 44
0.0
 50
0.0
 51
0.0
 71
    16
 72
   100
 73
     1
 74
     3
 75
     0
 76
     0
 77
     0
 78
     0
281
     0
 65
     0
110
0.0
120
0.0
130
0.0
111
1.0
121
0.0
131
0.0
112
0.0
122
1.0
132
0.0
 79
     0
146
0.0
 60
     3
 61
     5
292
     1
282
     1
141
0.0
142
0.0
 63
   256
  0
ENDTAB
  0
TABLE
  2
LTYPE
  5
5
330
0
100
AcDbSymbolTable
 70
    13
  0
LTYPE
  5
14
330
5
100
AcDbSymbolTableRecord
100
AcDbLinetypeTableRecord
  2
ByBlock
 70
     0
  3

 72
    65
 73
     0
 40
0.0
  0
LTYPE
  5
15
330
5
100
AcDbSymbolTableRecord
100
AcDbLinetypeTableRecord
  2
ByLayer
 70
     0
  3

 72
    65
 73
     0
 40
0.0
  0
LTYPE
  5
16
330
5
100
AcDbSymbolTableRecord
100
AcDbLinetypeTableRecord
  2
Continuous
 70
     0
  3
Solid line
 72
    65
 73
     0
 40
0.0
  0
LTYPE
  5
1262
330
5
100
AcDbSymbolTableRecord
100
AcDbLinetypeTableRecord
  2
DASHED
 70
     0
  3
__ __ __ __ __ __ __ __ __ __ __ __ __ __ __
 72
    65
 73
     2
 40
0.75
 49
0.5
 74
     4
 75
     0
340
0
 46
1.0
 50
0.0
 44
0.0
 45
0.0
 49
-0.25
 74
     4
 75
     0
340
0
 46
1.0
 50
0.0
 44
0.0
 45
0.0
  0
LTYPE
  5
1263
330
5
100
AcDbSymbolTableRecord
100
AcDbLinetypeTableRecord
  2
HIDDEN
 70
     0
  3
_ _ _ _ _ _ _ _ _ _ _ _ _ _ _ _ _ _ _ _ _ _ _
 72
    65
 73
     2
 40
0.375
 49
0.25
 74
     4
 75
     0
340
0
 46
1.0
 50
0.0
 44
0.0
 45
0.0
 49
-0.125
 74
     4
 75
     0
340
0
 46
1.0
 50
0.0
 44
0.0
 45
0.0
  0
LTYPE
  5
1264
330
5
100
AcDbSymbolTableRecord
100
AcDbLinetypeTableRecord
  2
CENTER
 70
     0
  3
____ _ ____ _ ____ _ ____ _ ____ _ ____ _ ____
 72
    65
 73
     4
 40
2.0
 49
1.25
 74
     4
 75
     0
340
0
 46
1.0
 50
0.0
 44
0.0
 45
0.0
 49
-0.25
 74
     4
 75
     0
340
0
 46
1.0
 50
0.0
 44
0.0
 45
0.0
 49
0.25
 74
     4
 75
     0
340
0
 46
1.0
 50
0.0
 44
0.0
 45
0.0
 49
-0.25
 74
     4
 75
     0
340
0
 46
1.0
 50
0.0
 44
0.0
 45
0.0
  0
LTYPE
  5
1265
330
5
100
AcDbSymbolTableRecord
100
AcDbLinetypeTableRecord
  2
PHANTOM
 70
     0
  3
_____ _ _ _____ _ _ _____ _ _ _____ _ _ ____
 72
    65
 73
     6
 40
2.5
 49
1.25
 74
     4
 75
     0
340
0
 46
1.0
 50
0.0
 44
0.0
 45
0.0
 49
-0.25
 74
     4
 75
     0
340
0
 46
1.0
 50
0.0
 44
0.0
 45
0.0
 49
0.25
 74
     4
 75
     0
340
0
 46
1.0
 50
0.0
 44
0.0
 45
0.0
 49
-0.25
 74
     4
 75
     0
340
0
 46
1.0
 50
0.0
 44
0.0
 45
0.0
 49
0.25
 74
     4
 75
     0
340
0
 46
1.0
 50
0.0
 44
0.0
 45
0.0
 49
-0.25
 74
     4
 75
     0
340
0
 46
1.0
 50
0.0
 44
0.0
 45
0.0
  0
LTYPE
  5
1266
330
5
100
AcDbSymbolTableRecord
100
AcDbLinetypeTableRecord
  2
DOT
 70
     0
  3
...............................................
 72
    65
 73
     2
 40
0.25
 49
0.0
 74
     4
 75
     0
340
0
 46
1.0
 50
0.0
 44
0.0
 45
0.0
 49
-0.25
 74
     4
 75
     0
340
0
 46
1.0
 50
0.0
 44
0.0
 45
0.0
  0
LTYPE
  5
1267
330
5
100
AcDbSymbolTableRecord
100
AcDbLinetypeTableRecord
  2
DASHDOT
 70
     0
  3
__ . __ . __ . __ . __ . __ . __ . __ . __ . __
 72
    65
 73
     4
 40
1.0
 49
0.5
 74
     4
 75
     0
340
0
 46
1.0
 50
0.0
 44
0.0
 45
0.0
 49
-0.25
 74
     4
 75
     0
340
0
 46
1.0
 50
0.0
 44
0.0
 45
0.0
 49
0.0
 74
     4
 75
     0
340
0
 46
1.0
 50
0.0
 44
0.0
 45
0.0
 49
-0.25
 74
     4
 75
     0
340
0
 46
1.0
 50
0.0
 44
0.0
 45
0.0
  0
LTYPE
  5
1268
330
5
100
AcDbSymbolTableRecord
100
AcDbLinetypeTableRecord
  2
BORDER
 70
     0
  3
__ __ . __ __ . __ __ . __ __ . __ __ . __ __
 72
    65
 73
     6
 40
1.75
 49
0.5
 74
     4
 75
     0
340
0
 46
1.0
 50
0.0
 44
0.0
 45
0.0
 49
-0.25
 74
     4
 75
     0
340
0
 46
1.0
 50
0.0
 44
0.0
 45
0.0
 49
0.5
 74
     4
 75
     0
340
0
 46
1.0
 50
0.0
 44
0.0
 45
0.0
 49
-0.25
 74
     4
 75
     0
340
0
 46
1.0
 50
0.0
 44
0.0
 45
0.0
 49
0.0
 74
     4
 75
     0
340
0
 46
1.0
 50
0.0
 44
0.0
 45
0.0
 49
-0.25
 74
     4
 75
     0
340
0
 46
1.0
 50
0.0
 44
0.0
 45
0.0
  0
LTYPE
  5
1269
330
5
100
AcDbSymbolTableRecord
100
AcDbLinetypeTableRecord
  2
DIVIDE
 70
     0
  3
__ . . __ . . __ . . __ . . __ . . __ . . __
 72
    65
 73
     6
 40
1.25
 49
0.5
 74
     4
 75
     0
340
0
 46
1.0
 50
0.0
 44
0.0
 45
0.0
 49
-0.25
 74
     4
 75
     0
340
0
 46
1.0
 50
0.0
 44
0.0
 45
0.0
 49
0.0
 74
     4
 75
     0
340
0
 46
1.0
 50
0.0
 44
0.0
 45
0.0
 49
-0.25
 74
     4
 75
     0
340
0
 46
1.0
 50
0.0
 44
0.0
 45
0.0
 49
0.0
 74
     4
 75
     0
340
0
 46
1.0
 50
0.0
 44
0.0
 45
0.0
 49
-0.25
 74
     4
 75
     0
340
0
 46
1.0
 50
0.0
 44
0.0
 45
0.0
  0
LTYPE
  5
126A
330
5
100
AcDbSymbolTableRecord
100
AcDbLinetypeTableRecord
  2
DCTYPE1
 70
     0
  3
__ . . __ . . __ . . __ . . __ . . __ . . __
 72
    65
 73
     8
 40
2.0
 49
0.5
 74
     4
 75
     0
340
0
 46
1.0
 50
0.0
 44
0.0
 45
0.0
 49
-0.25
 74
     4
 75
     0
340
0
 46
1.0
 50
0.0
 44
0.0
 45
0.0
 49
0.125
 74
     4
 75
     0
340
0
 46
1.0
 50
0.0
 44
0.0
 45
0.0
 49
-0.25
 74
     4
 75
     0
340
0
 46
1.0
 50
0.0
 44
0.0
 45
0.0
 49
0.25
 74
     4
 75
     0
340
0
 46
1.0
 50
0.0
 44
0.0
 45
0.0
 49
-0.25
 74
     4
 75
     0
340
0
 46
1.0
 50
0.0
 44
0.0
 45
0.0
 49
0.125
 74
     4
 75
     0
340
0
 46
1.0
 50
0.0
 44
0.0
 45
0.0
 49
-0.25
 74
     4
 75
     0
340
0
 46
1.0
 50
0.0
 44
0.0
 45
0.0
  0
LTYPE
  5
126B
330
5
100
AcDbSymbolTableRecord
100
AcDbLinetypeTableRecord
  2
DCTYPE2
 70
     0
  3
__ . . __ . . __ . . __ . . __ . . __ . . __
 72
    65
 73
     6
 40
2.05
 49
1.0
 74
     4
 75
     0
340
0
 46
1.0
 50
0.0
 44
0.0
 45
0.0
 49
-0.3
 74
     4
 75
     0
340
0
 46
1.0
 50
0.0
 44
0.0
 45
0.0
 49
0.15
 74
     4
 75
     0
340
0
 46
1.0
 50
0.0
 44
0.0
 45
0.0
 49
-0.15
 74
     4
 75
     0
340
0
 46
1.0
 50
0.0
 44
0.0
 45
0.0
 49
0.15
 74
     4
 75
     0
340
0
 46
1.0
 50
0.0
 44
0.0
 45
0.0
 49
-0.3
 74
     4
 75
     0
340
0
 46
1.0
 50
0.0
 44
0.0
 45
0.0
  0
LTYPE
  5
126C
330
5
100
AcDbSymbolTableRecord
100
AcDbLinetypeTableRecord
  2
DCTYPE3
 70
     0
  3
__ . . __ . . __ . . __ . . __ . . __ . . __
 72
    65
 73
     6
 40
2.5
 49
0.8
 74
     4
 75
     0
340
0
 46
1.0
 50
0.0
 44
0.0
 45
0.0
 49
-0.2
 74
     4
 75
     0
340
0
 46
1.0
 50
0.0
 44
0.0
 45
0.0
 49
0.8
 74
     4
 75
     0
340
0
 46
1.0
 50
0.0
 44
0.0
 45
0.0
 49
-0.2
 74
     4
 75
     0
340
0
 46
1.0
 50
0.0
 44
0.0
 45
0.0
 49
0.3
 74
     4
 75
     0
340
0
 46
1.0
 50
0.0
 44
0.0
 45
0.0
 49
-0.2
 74
     4
 75
     0
340
0
 46
1.0
 50
0.0
 44
0.0
 45
0.0
  0
LTYPE
  5
126D
330
5
100
AcDbSymbolTableRecord
100
AcDbLinetypeTableRecord
  2
DCTYPE4
 70
     0
  3
__ . . __ . . __ . . __ . . __ . . __ . . __
 72
    65
 73
    10
 40
3.969999999999999
 49
1.75
 74
     4
 75
     0
340
0
 46
1.0
 50
0.0
 44
0.0
 45
0.0
 49
-0.3
 74
     4
 75
     0
340
0
 46
1.0
 50
0.0
 44
0.0
 45
0.0
 49
0.3
 74
     4
 75
     0
340
0
 46
1.0
 50
0.0
 44
0.0
 45
0.0
 49
-0.3
 74
     4
 75
     0
340
0
 46
1.0
 50
0.0
 44
0.0
 45
0.0
 49
0.06
 74
     4
 75
     0
340
0
 46
1.0
 50
0.0
 44
0.0
 45
0.0
 49
-0.3
 74
     4
 75
     0
340
0
 46
1.0
 50
0.0
 44
0.0
 45
0.0
 49
0.06
 74
     4
 75
     0
340
0
 46
1.0
 50
0.0
 44
0.0
 45
0.0
 49
-0.3
 74
     4
 75
     0
340
0
 46
1.0
 50
0.0
 44
0.0
 45
0.0
 49
0.3
 74
     4
 75
     0
340
0
 46
1.0
 50
0.0
 44
0.0
 45
0.0
 49
-0.3
 74
     4
 75
     0
340
0
 46
1.0
 50
0.0
 44
0.0
 45
0.0
  0
ENDTAB
  0
TABLE
  2
LAYER
  5
2
330
0
100
AcDbSymbolTable
 70
     4
  0
LAYER
  5
10
330
2
100
AcDbSymbolTableRecord
100
AcDbLayerTableRecord
  2
0
 70
     0
 62
     7
  6
Continuous
370
    -3
390
F
347
0
  0
LAYER
  5
2E
330
2
100
AcDbSymbolTableRecord
100
AcDbLayerTableRecord
  2
tie
 70
     0
 62
     7
  6
Continuous
370
    -3
390
F
347
0
  0
LAYER
  5
2F
330
2
100
AcDbSymbolTableRecord
100
AcDbLayerTableRecord
  2
filler
 70
     0
 62
     7
  6
Continuous
370
    -3
390
F
347
0
  0
LAYER
  5
30
330
2
100
AcDbSymbolTableRecord
100
AcDbLayerTableRecord
  2
dims
 70
     0
 62
     7
  6
Continuous
370
    -3
390
F
347
0
  0
ENDTAB
  0
TABLE
  2
STYLE
  5
3
330
0
100
AcDbSymbolTable
 70
     2
  0
STYLE
  5
11
330
3
100
AcDbSymbolTableRecord
100
AcDbTextStyleTableRecord
  2
Standard
 70
     0
 40
0.0
 41
1.0
 50
0.0
 71
     0
 42
0.2
  3
txt
  4

  0
STYLE
  5
125D
330
3
100
AcDbSymbolTableRecord
100
AcDbTextStyleTableRecord
  2
_TCW_TXTSTY_4
 70
     0
 40
0.0
 41
0.41
 50
0.0
 71
     0
 42
16.0
  3
TXT.SHX
  4

  0
ENDTAB
  0
TABLE
  2
VIEW
  5
6
330
0
100
AcDbSymbolTable
 70
     0
  0
ENDTAB
  0
TABLE
  2
UCS
  5
7
330
0
100
AcDbSymbolTable
 70
     0
  0
ENDTAB
  0
TABLE
  2
APPID
  5
9
330
0
100
AcDbSymbolTable
 70
     2
  0
APPID
  5
12
330
9
100
AcDbSymbolTableRecord
100
AcDbRegAppTableRecord
  2
ACAD
 70
     0
  0
APPID
  5
1261
330
9
100
AcDbSymbolTableRecord
100
AcDbRegAppTableRecord
  2
TCAD
 70
     0
  0
ENDTAB
  0
TABLE
  2
DIMSTYLE
  5
A
330
0
100
AcDbSymbolTable
 70
     1
100
AcDbDimStyleTable
  0
DIMSTYLE
105
27
330
A
100
AcDbSymbolTableRecord
100
AcDbDimStyleTableRecord
  2
Standard
 70
     0
340
11
  0
ENDTAB
  0
TABLE
  2
BLOCK_RECORD
  5
1
330
0
100
AcDbSymbolTable
 70
     0
  0
BLOCK_RECORD
  5
1F
102
{ACAD_XDICTIONARY
360
1279
102
}
330
1
100
AcDbSymbolTableRecord
100
AcDbBlockTableRecord
  2
*Model_Space
340
22
 70
     0
280
     1
281
     0
  0
BLOCK_RECORD
  5
73
330
1
100
AcDbSymbolTableRecord
100
AcDbBlockTableRecord
  2
*Paper_Space
340
74
 70
     0
280
     1
281
     0
  0
ENDTAB
  0
ENDSEC
  0
SECTION
  2
BLOCKS
  0
BLOCK
  5
20
330
1F
100
AcDbEntity
  8
0
100
AcDbBlockBegin
  2
*Model_Space
 70
     0
 10
0.0
 20
0.0
 30
0.0
  3
*Model_Space
  1

  0
ENDBLK
  5
21
330
1F
100
AcDbEntity
  8
0
100
AcDbBlockEnd
  0
BLOCK
  5
75
330
73
100
AcDbEntity
 67
     1
  8
0
100
AcDbBlockBegin
  2
*Paper_Space
 70
     0
 10
0.0
 20
0.0
 30
0.0
  3
*Paper_Space
  1

  0
ENDBLK
  5
76
330
73
100
AcDbEntity
 67
     1
  8
0
100
AcDbBlockEnd
  0
ENDSEC
  0
SECTION
  2
ENTITIES
  0
TEXT
  5
32
330
1F
100
AcDbEntity
  8
0
 62
     7
100
AcDbText
 10
7908090.1629
 20
-285047.4434
 30
0.0
 40
24.9935
  1
Sealent
 41
0.7514537248077643
 72
     5
 11
7908206.0445
 21
-285047.4434
 31
0.0
100
AcDbText
  0
TEXT
  5
33
330
1F
100
AcDbEntity
  8
0
 62
     7
100
AcDbText
 10
7907216.9117
 20
-285745.1907
 30
0.0
 40
30.0051
  1
Scale 1:10
 41
0.8586962641377474
 72
     5
 11
7907414.5313
 21
-285745.1907
 31
0.0
100
AcDbText
  0
LWPOLYLINE
  5
34
330
1F
100
AcDbEntity
  8
0
  6
Continuous
 62
     7
100
AcDbPolyline
 90
        2
 70
     0
 43
1.0
 10
7907840.8103
 20
-285297.0869
 10
7907840.8103
 20
-285337.0829
  0
LWPOLYLINE
  5
38
330
1F
100
AcDbEntity
  8
0
  6
Continuous
 62
     7
100
AcDbPolyline
 90
        2
 70
     0
 43
1.0
 10
7907914.271
 20
-285297.6042
 10
7907914.271
 20
-285337.5679
  0
LWPOLYLINE
  5
3C
330
1F
100
AcDbEntity
  8
0
  6
Continuous
 62
     7
100
AcDbPolyline
 90
        2
 70
     0
 43
1.0
 10
7907888.4046
 20
-285296.9576
 10
7907888.4046
 20
-285336.9535
  0
LWPOLYLINE
  5
40
330
1F
100
AcDbEntity
  8
0
  6
Continuous
 62
     7
100
AcDbPolyline
 90
        2
 70
     0
 43
1.0
 10
7907863.5728
 20
-285296.9576
 10
7907863.5728
 20
-285336.9535
  0
LWPOLYLINE
  5
44
330
1F
100
AcDbEntity
  8
0
  6
Continuous
 62
     7
100
AcDbPolyline
 90
        2
 70
     0
 43
1.0
 10
7907818.0479
 20
-285296.9576
 10
7907818.0479
 20
-285336.9535
  0
LWPOLYLINE
  5
48
330
1F
100
AcDbEntity
  8
0
  6
Continuous
 62
     7
100
AcDbPolyline
 90
        2
 70
     0
 43
1.0
 10
7907797.3547
 20
-285296.9576
 10
7907797.3547
 20
-285336.9535
  0
LWPOLYLINE
  5
4C
330
1F
100
AcDbEntity
  8
0
  6
Continuous
 62
     7
100
AcDbPolyline
 90
        2
 70
     0
 43
1.0
 10
7907976.3505
 20
-285297.5719
 10
7907976.3505
 20
-285337.5679
  0
LWPOLYLINE
  5
50
330
1F
100
AcDbEntity
  8
0
  6
Continuous
 62
     7
100
AcDbPolyline
 90
        2
 70
     0
 43
1.0
 10
7907997.561
 20
-285297.5719
 10
7907997.561
 20
-285337.5679
  0
LWPOLYLINE
  5
54
330
1F
100
AcDbEntity
  8
0
  6
Continuous
 62
     7
100
AcDbPolyline
 90
        2
 70
     0
 43
1.0
 10
7908020.8408
 20
-285296.9576
 10
7908020.8408
 20
-285336.9535
  0
LWPOLYLINE
  5
58
330
1F
100
AcDbEntity
  8
0
  6
Continuous
 62
     7
100
AcDbPolyline
 90
        2
 70
     0
 43
1.0
 10
7908044.6379
 20
-285297.6042
 10
7908044.6379
 20
-285337.5679
  0
LWPOLYLINE
  5
5C
330
1F
100
AcDbEntity
  8
0
  6
Continuous
 62
     7
100
AcDbPolyline
 90
        2
 70
     0
 43
1.0
 10
7908067.4004
 20
-285296.9576
 10
7908067.4004
 20
-285336.9535
  0
LWPOLYLINE
  5
60
330
1F
100
AcDbEntity
  8
0
  6
Continuous
 62
     7
100
AcDbPolyline
 90
        2
 70
     0
 43
1.0
 10
7908090.1629
 20
-285297.6042
 10
7908090.1629
 20
-285337.5679
  0
LWPOLYLINE
  5
64
330
1F
100
AcDbEntity
  8
0
  6
Continuous
 62
     7
100
AcDbPolyline
 90
        2
 70
     0
 43
0.5
 10
7907959.796
 20
-285296.9576
 10
7907959.796
 20
-285336.9535
  0
LWPOLYLINE
  5
68
330
1F
100
AcDbEntity
  8
0
  6
Continuous
 62
     7
100
AcDbPolyline
 90
        2
 70
     0
 43
0.5
 10
7907901.8552
 20
-285297.3455
 10
7907901.8552
 20
-285337.3415
  0
LWPOLYLINE
  5
126E
330
1F
100
AcDbEntity
  8
0
  6
Continuous
 62
     7
100
AcDbPolyline
 90
        2
 70
     0
 43
0.5
 10
7907877.0234
 20
-285296.7312
 10
7907877.0234
 20
-285336.6949
  0
LWPOLYLINE
  5
70
330
1F
100
AcDbEntity
  8
0
  6
Continuous
 62
     7
100
AcDbPolyline
 90
        2
 70
     0
 43
0.5
 10
7907851.6743
 20
-285297.9599
 10
7907851.6743
 20
-285337.9559
  0
LWPOLYLINE
  5
126F
330
1F
100
AcDbEntity
  8
0
  6
Continuous
 62
     7
100
AcDbPolyline
 90
        2
 70
     0
 43
0.5
 10
7907829.4291
 20
-285296.7312
 10
7907829.4291
 20
-285336.6949
  0
LWPOLYLINE
  5
78
330
1F
100
AcDbEntity
  8
0
  6
Continuous
 62
     7
100
AcDbPolyline
 90
        2
 70
     0
 43
0.5
 10
7907807.7013
 20
-285296.0846
 10
7907807.7013
 20
-285336.0805
  0
LWPOLYLINE
  5
7C
330
1F
100
AcDbEntity
  8
0
  6
Continuous
 62
     7
100
AcDbPolyline
 90
        2
 70
     0
 43
0.5
 10
7907986.6971
 20
-285297.3455
 10
7907986.6971
 20
-285337.3415
  0
LWPOLYLINE
  5
80
330
1F
100
AcDbEntity
  8
0
  6
Continuous
 62
     7
100
AcDbPolyline
 90
        2
 70
     0
 43
0.5
 10
7908008.4249
 20
-285297.9599
 10
7908008.4249
 20
-285337.9559
  0
LWPOLYLINE
  5
84
330
1F
100
AcDbEntity
  8
0
  6
Continuous
 62
     7
100
AcDbPolyline
 90
        2
 70
     0
 43
0.5
 10
7908032.7394
 20
-285296.7312
 10
7908032.7394
 20
-285336.6949
  0
LWPOLYLINE
  5
88
330
1F
100
AcDbEntity
  8
0
  6
Continuous
 62
     7
100
AcDbPolyline
 90
        2
 70
     0
 43
0.5
 10
7908057.0538
 20
-285296.7312
 10
7908057.0538
 20
-285336.6949
  0
LWPOLYLINE
  5
8C
330
1F
100
AcDbEntity
  8
0
  6
Continuous
 62
     7
100
AcDbPolyline
 90
        2
 70
     0
 43
0.5
 10
7908078.7816
 20
-285297.3455
 10
7908078.7816
 20
-285337.3415
  0
LWPOLYLINE
  5
90
330
1F
100
AcDbEntity
  8
0
  6
Continuous
 62
     7
100
AcDbPolyline
 90
        2
 70
     0
 43
0.5
 10
7907928.7563
 20
-285296.7312
 10
7907928.7563
 20
-285336.6949
  0
LWPOLYLINE
  5
94
330
1F
100
AcDbEntity
  8
0
  6
Continuous
 62
     7
100
AcDbPolyline
 90
        2
 70
     0
 43
0.0
 10
7907976.3505
 20
-285321.66
 10
7907981.5238
 20
-285316.4221
  0
LWPOLYLINE
  5
1270
330
1F
100
AcDbEntity
  8
0
  6
Continuous
 62
     7
100
AcDbPolyline
 90
        2
 70
     0
 43
0.0
 10
7907981.5238
 20
-285316.4221
 10
7907985.6624
 20
-285312.3158
  0
LWPOLYLINE
  5
1271
330
1F
100
AcDbEntity
  8
0
  6
Continuous
 62
     7
100
AcDbPolyline
 90
        2
 70
     0
 43
0.0
 10
7907976.3505
 20
-285316.713
 10
7907977.3852
 20
-285315.5814
  0
LWPOLYLINE
  5
1272
330
1F
100
AcDbEntity
  8
0
  6
Continuous
 62
     7
100
AcDbPolyline
 90
        2
 70
     0
 43
0.0
 10
7907977.3852
 20
-285315.5814
 10
7907982.5585
 20
-285310.3434
  0
LWPOLYLINE
  5
1273
330
1F
100
AcDbEntity
  8
0
  6
Continuous
 62
     7
100
AcDbPolyline
 90
        2
 70
     0
 43
0.0
 10
7907982.5585
 20
-285310.3434
 10
7907985.6624
 20
-285307.3688
  0
LWPOLYLINE
  5
1274
330
1F
100
AcDbEntity
  8
0
  6
Continuous
 62
     7
100
AcDbPolyline
 90
        2
 70
     0
 43
0.0
 10
7907976.3505
 20
-285311.2811
 10
7907978.4198
 20
-285309.0178
  0
LWPOLYLINE
  5
1275
330
1F
100
AcDbEntity
  8
0
  6
Continuous
 62
     7
100
AcDbPolyline
 90
        2
 70
     0
 43
0.0
 10
7907978.4198
 20
-285309.0178
 10
7907983.5931
 20
-285303.7798
  0
LWPOLYLINE
  5
1276
330
1F
100
AcDbEntity
  8
0
  6
Continuous
 62
     7
100
AcDbPolyline
 90
        2
 70
     0
 43
0.0
 10
7907983.5931
 20
-285303.7798
 10
7907985.6624
 20
-285301.9368
  0
LWPOLYLINE
  5
1277
330
1F
100
AcDbEntity
  8
0
  6
Continuous
 62
     7
100
AcDbPolyline
 90
        2
 70
     0
 43
0.0
 10
7907982.0411
 20
-285336.8242
 10
7907985.1451
 20
-285333.3646
  0
LWPOLYLINE
  5
1278
330
1F
100
AcDbEntity
  8
0
  6
Continuous
 62
     7
100
AcDbPolyline
 90
        2
 70
     0
 43
0.0
 10
7907985.1451
 20
-285333.3646
 10
7907985.6624
 20
-285333.0736
  0
LWPOLYLINE
  5
BC
330
1F
100
AcDbEntity
  8
0
  6
Continuous
 62
     7
100
AcDbPolyline
 90
        2
 70
     0
 43
0.0
 10
7907976.3505
 20
-285306.3665
 10
7907981.5238
 20
-285301.3872
  0
LWPOLYLINE
  5
C0
330
1F
100
AcDbEntity
  8
0
  6
Continuous
 62
     7
100
AcDbPolyline
 90
        2
 70
     0
 43
0.0
 10
7907981.5238
 20
-285301.3872
 10
7907985.6624
 20
-285296.9899
  0
LWPOLYLINE
  5
C4
330
1F
100
AcDbEntity
  8
0
  6
Continuous
 62
     7
100
AcDbPolyline
 90
        2
 70
     0
 43
0.0
 10
7907977.3852
 20
-285336.5009
 10
7907978.4198
 20
-285335.6602
  0
LWPOLYLINE
  5
C8
330
1F
100
AcDbEntity
  8
0
  6
Continuous
 62
     7
100
AcDbPolyline
 90
        2
 70
     0
 43
0.0
 10
7907978.4198
 20
-285335.6602
 10
7907983.5931
 20
-285330.3899
  0
LWPOLYLINE
  5
CC
330
1F
100
AcDbEntity
  8
0
  6
Continuous
 62
     7
100
AcDbPolyline
 90
        2
 70
     0
 43
0.0
 10
7907983.5931
 20
-285330.3899
 10
7907985.6624
 20
-285328.1266
  0
LWPOLYLINE
  5
D0
330
1F
100
AcDbEntity
  8
0
  6
Continuous
 62
     7
100
AcDbPolyline
 90
        2
 70
     0
 43
0.0
 10
7907998.5957
 20
-285321.5307
 10
7908003.7689
 20
-285316.2281
  0
LWPOLYLINE
  5
D4
330
1F
100
AcDbEntity
  8
0
  6
Continuous
 62
     7
100
AcDbPolyline
 90
        2
 70
     0
 43
0.0
 10
7908003.7689
 20
-285316.2281
 10
7908007.3903
 20
-285312.4774
  0
LWPOLYLINE
  5
D8
330
1F
100
AcDbEntity
  8
0
  6
Continuous
 62
     7
100
AcDbPolyline
 90
        2
 70
     0
 43
0.0
 10
7907998.5957
 20
-285316.5837
 10
7908000.1476
 20
-285315.0317
  0
LWPOLYLINE
  5
DC
330
1F
100
AcDbEntity
  8
0
  6
Continuous
 62
     7
100
AcDbPolyline
 90
        2
 70
     0
 43
0.0
 10
7908000.1476
 20
-285315.0317
 10
7908005.3209
 20
-285309.7291
  0
LWPOLYLINE
  5
E0
330
1F
100
AcDbEntity
  8
0
  6
Continuous
 62
     7
100
AcDbPolyline
 90
        2
 70
     0
 43
0.0
 10
7908005.3209
 20
-285309.7291
 10
7908007.3903
 20
-285307.5951
  0
LWPOLYLINE
  5
E4
330
1F
100
AcDbEntity
  8
0
  6
Continuous
 62
     7
100
AcDbPolyline
 90
        2
 70
     0
 43
0.0
 10
7907998.5957
 20
-285311.1518
 10
7908001.6996
 20
-285308.0155
  0
LWPOLYLINE
  5
E8
330
1F
100
AcDbEntity
  8
0
  6
Continuous
 62
     7
100
AcDbPolyline
 90
        2
 70
     0
 43
0.0
 10
7908001.6996
 20
-285308.0155
 10
7908006.8729
 20
-285302.7452
  0
LWPOLYLINE
  5
EC
330
1F
100
AcDbEntity
  8
0
  6
Continuous
 62
     7
100
AcDbPolyline
 90
        2
 70
     0
 43
0.0
 10
7908006.8729
 20
-285302.7452
 10
7908007.3903
 20
-285302.2278
  0
LWPOLYLINE
  5
F0
330
1F
100
AcDbEntity
  8
0
  6
Continuous
 62
     7
100
AcDbPolyline
 90
        2
 70
     0
 43
0.0
 10
7908004.2863
 20
-285336.8242
 10
7908007.9076
 20
-285333.4616
  0
LWPOLYLINE
  5
F4
330
1F
100
AcDbEntity
  8
0
  6
Continuous
 62
     7
100
AcDbPolyline
 90
        2
 70
     0
 43
0.0
 10
7907998.5957
 20
-285306.2048
 10
7907999.6303
 20
-285304.9761
  0
LWPOLYLINE
  5
F8
330
1F
100
AcDbEntity
  8
0
  6
Continuous
 62
     7
100
AcDbPolyline
 90
        2
 70
     0
 43
0.0
 10
7907999.6303
 20
-285304.9761
 10
7908004.8036
 20
-285299.7382
  0
LWPOLYLINE
  5
FC
330
1F
100
AcDbEntity
  8
0
  6
Continuous
 62
     7
100
AcDbPolyline
 90
        2
 70
     0
 43
0.0
 10
7908004.8036
 20
-285299.7382
 10
7908007.3903
 20
-285297.3455
  0
LWPOLYLINE
  5
100
330
1F
100
AcDbEntity
  8
0
  6
Continuous
 62
     7
100
AcDbPolyline
 90
        2
 70
     0
 43
0.0
 10
7907999.6303
 20
-285336.4685
 10
7908002.7343
 20
-285333.5909
  0
LWPOLYLINE
  5
104
330
1F
100
AcDbEntity
  8
0
  6
Continuous
 62
     7
100
AcDbPolyline
 90
        2
 70
     0
 43
0.0
 10
7908002.7343
 20
-285333.5909
 10
7908007.9076
 20
-285328.3206
  0
LWPOLYLINE
  5
108
330
1F
100
AcDbEntity
  8
0
  6
Continuous
 62
     7
100
AcDbPolyline
 90
        2
 70
     0
 43
0.0
 10
7908007.9076
 20
-285328.3206
 10
7908007.9076
 20
-285328.0943
  0
LWPOLYLINE
  5
10C
330
1F
100
AcDbEntity
  8
0
  6
Continuous
 62
     7
100
AcDbPolyline
 90
        2
 70
     0
 43
0.0
 10
7908021.8755
 20
-285322.339
 10
7908027.0487
 20
-285317.1334
  0
LWPOLYLINE
  5
110
330
1F
100
AcDbEntity
  8
0
  6
Continuous
 62
     7
100
AcDbPolyline
 90
        2
 70
     0
 43
0.0
 10
7908027.0487
 20
-285317.1334
 10
7908030.6701
 20
-285313.6737
  0
LWPOLYLINE
  5
114
330
1F
100
AcDbEntity
  8
0
  6
Continuous
 62
     7
100
AcDbPolyline
 90
        2
 70
     0
 43
0.0
 10
7908021.8755
 20
-285316.907
 10
7908023.4274
 20
-285315.1611
  0
LWPOLYLINE
  5
118
330
1F
100
AcDbEntity
  8
0
  6
Continuous
 62
     7
100
AcDbPolyline
 90
        2
 70
     0
 43
0.0
 10
7908023.4274
 20
-285315.1611
 10
7908028.6007
 20
-285309.8584
  0
LWPOLYLINE
  5
11C
330
1F
100
AcDbEntity
  8
0
  6
Continuous
 62
     7
100
AcDbPolyline
 90
        2
 70
     0
 43
0.0
 10
7908028.6007
 20
-285309.8584
 10
7908030.1527
 20
-285308.3711
  0
LWPOLYLINE
  5
120
330
1F
100
AcDbEntity
  8
0
  6
Continuous
 62
     7
100
AcDbPolyline
 90
        2
 70
     0
 43
0.0
 10
7908021.8755
 20
-285311.9601
 10
7908025.4968
 20
-285308.1448
  0
LWPOLYLINE
  5
124
330
1F
100
AcDbEntity
  8
0
  6
Continuous
 62
     7
100
AcDbPolyline
 90
        2
 70
     0
 43
0.0
 10
7908025.4968
 20
-285308.1448
 10
7908030.1527
 20
-285303.5535
  0
LWPOLYLINE
  5
128
330
1F
100
AcDbEntity
  8
0
  6
Continuous
 62
     7
100
AcDbPolyline
 90
        2
 70
     0
 43
0.0
 10
7908027.5661
 20
-285337.4709
 10
7908028.0834
 20
-285336.7919
  0
LWPOLYLINE
  5
12C
330
1F
100
AcDbEntity
  8
0
  6
Continuous
 62
     7
100
AcDbPolyline
 90
        2
 70
     0
 43
0.0
 10
7908028.0834
 20
-285336.7919
 10
7908031.1874
 20
-285333.9142
  0
LWPOLYLINE
  5
130
330
1F
100
AcDbEntity
  8
0
  6
Continuous
 62
     7
100
AcDbPolyline
 90
        2
 70
     0
 43
0.0
 10
7908021.8755
 20
-285306.5281
 10
7908024.4621
 20
-285304.2002
  0
LWPOLYLINE
  5
134
330
1F
100
AcDbEntity
  8
0
  6
Continuous
 62
     7
100
AcDbPolyline
 90
        2
 70
     0
 43
0.0
 10
7908024.4621
 20
-285304.2002
 10
7908029.6354
 20
-285298.9622
  0
LWPOLYLINE
  5
138
330
1F
100
AcDbEntity
  8
0
  6
Continuous
 62
     7
100
AcDbPolyline
 90
        2
 70
     0
 43
0.0
 10
7908029.6354
 20
-285298.9622
 10
7908030.1527
 20
-285298.2832
  0
LWPOLYLINE
  5
13C
330
1F
100
AcDbEntity
  8
0
  6
Continuous
 62
     7
100
AcDbPolyline
 90
        2
 70
     0
 43
0.0
 10
7908022.9101
 20
-285337.1475
 10
7908027.5661
 20
-285332.5239
  0
LWPOLYLINE
  5
140
330
1F
100
AcDbEntity
  8
0
  6
Continuous
 62
     7
100
AcDbPolyline
 90
        2
 70
     0
 43
0.0
 10
7908027.5661
 20
-285332.5239
 10
7908030.6701
 20
-285329.0966
  0
LWPOLYLINE
  5
144
330
1F
100
AcDbEntity
  8
0
  6
Continuous
 62
     7
100
AcDbPolyline
 90
        2
 70
     0
 43
0.0
 10
7908046.7072
 20
-285322.5653
 10
7908051.8805
 20
-285317.295
  0
LWPOLYLINE
  5
148
330
1F
100
AcDbEntity
  8
0
  6
Continuous
 62
     7
100
AcDbPolyline
 90
        2
 70
     0
 43
0.0
 10
7908051.8805
 20
-285317.295
 10
7908055.5018
 20
-285313.6414
  0
LWPOLYLINE
  5
14C
330
1F
100
AcDbEntity
  8
0
  6
Continuous
 62
     7
100
AcDbPolyline
 90
        2
 70
     0
 43
0.0
 10
7908046.7072
 20
-285317.1334
 10
7908048.2592
 20
-285315.5167
  0
LWPOLYLINE
  5
150
330
1F
100
AcDbEntity
  8
0
  6
Continuous
 62
     7
100
AcDbPolyline
 90
        2
 70
     0
 43
0.0
 10
7908048.2592
 20
-285315.5167
 10
7908053.4325
 20
-285310.2788
  0
LWPOLYLINE
  5
154
330
1F
100
AcDbEntity
  8
0
  6
Continuous
 62
     7
100
AcDbPolyline
 90
        2
 70
     0
 43
0.0
 10
7908053.4325
 20
-285310.2788
 10
7908055.5018
 20
-285308.2741
  0
LWPOLYLINE
  5
158
330
1F
100
AcDbEntity
  8
0
  6
Continuous
 62
     7
100
AcDbPolyline
 90
        2
 70
     0
 43
0.0
 10
7908046.7072
 20
-285311.7014
 10
7908049.8112
 20
-285308.4681
  0
LWPOLYLINE
  5
15C
330
1F
100
AcDbEntity
  8
0
  6
Continuous
 62
     7
100
AcDbPolyline
 90
        2
 70
     0
 43
0.0
 10
7908049.8112
 20
-285308.4681
 10
7908054.9845
 20
-285303.2302
  0
LWPOLYLINE
  5
160
330
1F
100
AcDbEntity
  8
0
  6
Continuous
 62
     7
100
AcDbPolyline
 90
        2
 70
     0
 43
0.0
 10
7908054.9845
 20
-285303.2302
 10
7908055.5018
 20
-285302.9068
  0
LWPOLYLINE
  5
164
330
1F
100
AcDbEntity
  8
0
  6
Continuous
 62
     7
100
AcDbPolyline
 90
        2
 70
     0
 43
0.0
 10
7908052.3979
 20
-285337.4709
 10
7908056.0192
 20
-285334.1406
  0
LWPOLYLINE
  5
168
330
1F
100
AcDbEntity
  8
0
  6
Continuous
 62
     7
100
AcDbPolyline
 90
        2
 70
     0
 43
0.0
 10
7908046.7072
 20
-285306.7545
 10
7908048.2592
 20
-285305.3318
  0
LWPOLYLINE
  5
16C
330
1F
100
AcDbEntity
  8
0
  6
Continuous
 62
     7
100
AcDbPolyline
 90
        2
 70
     0
 43
0.0
 10
7908048.2592
 20
-285305.3318
 10
7908053.4325
 20
-285300.1262
  0
LWPOLYLINE
  5
170
330
1F
100
AcDbEntity
  8
0
  6
Continuous
 62
     7
100
AcDbPolyline
 90
        2
 70
     0
 43
0.0
 10
7908053.4325
 20
-285300.1262
 10
7908055.5018
 20
-285298.0245
  0
LWPOLYLINE
  5
174
330
1F
100
AcDbEntity
  8
0
  6
Continuous
 62
     7
100
AcDbPolyline
 90
        2
 70
     0
 43
0.0
 10
7908047.2246
 20
-285337.1475
 10
7908050.3285
 20
-285334.0759
  0
LWPOLYLINE
  5
178
330
1F
100
AcDbEntity
  8
0
  6
Continuous
 62
     7
100
AcDbPolyline
 90
        2
 70
     0
 43
0.0
 10
7908050.3285
 20
-285334.0759
 10
7908055.5018
 20
-285328.9673
  0
LWPOLYLINE
  5
17C
330
1F
100
AcDbEntity
  8
0
  6
Continuous
 62
     7
100
AcDbPolyline
 90
        2
 70
     0
 43
0.0
 10
7908055.5018
 20
-285328.9673
 10
7908056.0192
 20
-285328.7733
  0
LWPOLYLINE
  5
180
330
1F
100
AcDbEntity
  8
0
  6
Continuous
 62
     7
100
AcDbPolyline
 90
        2
 70
     0
 43
0.0
 10
7908068.4351
 20
-285321.9833
 10
7908073.6083
 20
-285316.7454
  0
LWPOLYLINE
  5
184
330
1F
100
AcDbEntity
  8
0
  6
Continuous
 62
     7
100
AcDbPolyline
 90
        2
 70
     0
 43
0.0
 10
7908073.6083
 20
-285316.7454
 10
7908077.747
 20
-285312.6067
  0
LWPOLYLINE
  5
188
330
1F
100
AcDbEntity
  8
0
  6
Continuous
 62
     7
100
AcDbPolyline
 90
        2
 70
     0
 43
0.0
 10
7908068.4351
 20
-285316.5514
 10
7908069.4697
 20
-285315.4197
  0
LWPOLYLINE
  5
18C
330
1F
100
AcDbEntity
  8
0
  6
Continuous
 62
     7
100
AcDbPolyline
 90
        2
 70
     0
 43
0.0
 10
7908069.4697
 20
-285315.4197
 10
7908074.643
 20
-285310.1818
  0
LWPOLYLINE
  5
190
330
1F
100
AcDbEntity
  8
0
  6
Continuous
 62
     7
100
AcDbPolyline
 90
        2
 70
     0
 43
0.0
 10
7908074.643
 20
-285310.1818
 10
7908077.747
 20
-285307.1748
  0
LWPOLYLINE
  5
194
330
1F
100
AcDbEntity
  8
0
  6
Continuous
 62
     7
100
AcDbPolyline
 90
        2
 70
     0
 43
0.0
 10
7908068.4351
 20
-285311.0871
 10
7908070.5044
 20
-285308.8561
  0
LWPOLYLINE
  5
198
330
1F
100
AcDbEntity
  8
0
  6
Continuous
 62
     7
100
AcDbPolyline
 90
        2
 70
     0
 43
0.0
 10
7908070.5044
 20
-285308.8561
 10
7908075.6777
 20
-285303.6182
  0
LWPOLYLINE
  5
19C
330
1F
100
AcDbEntity
  8
0
  6
Continuous
 62
     7
100
AcDbPolyline
 90
        2
 70
     0
 43
0.0
 10
7908075.6777
 20
-285303.6182
 10
7908077.747
 20
-285301.7428
  0
LWPOLYLINE
  5
1A0
330
1F
100
AcDbEntity
  8
0
  6
Continuous
 62
     7
100
AcDbPolyline
 90
        2
 70
     0
 43
0.0
 10
7908074.1257
 20
-285336.8565
 10
7908077.747
 20
-285333.5262
  0
LWPOLYLINE
  5
1A4
330
1F
100
AcDbEntity
  8
0
  6
Continuous
 62
     7
100
AcDbPolyline
 90
        2
 70
     0
 43
0.0
 10
7908077.747
 20
-285333.5262
 10
7908077.747
 20
-285333.3646
  0
LWPOLYLINE
  5
1A8
330
1F
100
AcDbEntity
  8
0
  6
Continuous
 62
     7
100
AcDbPolyline
 90
        2
 70
     0
 43
0.0
 10
7908068.4351
 20
-285306.1725
 10
7908073.6083
 20
-285301.0315
  0
LWPOLYLINE
  5
1AC
330
1F
100
AcDbEntity
  8
0
  6
Continuous
 62
     7
100
AcDbPolyline
 90
        2
 70
     0
 43
0.0
 10
7908073.6083
 20
-285301.0315
 10
7908077.2297
 20
-285297.0869
  0
LWPOLYLINE
  5
1B0
330
1F
100
AcDbEntity
  8
0
  6
Continuous
 62
     7
100
AcDbPolyline
 90
        2
 70
     0
 43
0.0
 10
7908069.4697
 20
-285336.5009
 10
7908071.0217
 20
-285335.1429
  0
LWPOLYLINE
  5
1B4
330
1F
100
AcDbEntity
  8
0
  6
Continuous
 62
     7
100
AcDbPolyline
 90
        2
 70
     0
 43
0.0
 10
7908071.0217
 20
-285335.1429
 10
7908076.195
 20
-285329.8079
  0
LWPOLYLINE
  5
1B8
330
1F
100
AcDbEntity
  8
0
  6
Continuous
 62
     7
100
AcDbPolyline
 90
        2
 70
     0
 43
0.0
 10
7908076.195
 20
-285329.8079
 10
7908077.747
 20
-285327.9326
  0
LWPOLYLINE
  5
1BC
330
1F
100
AcDbEntity
  8
0
  6
Continuous
 62
     7
100
AcDbPolyline
 90
        2
 70
     0
 43
0.0
 10
7908091.7149
 20
-285322.2743
 10
7908096.8881
 20
-285317.0364
  0
LWPOLYLINE
  5
1C0
330
1F
100
AcDbEntity
  8
0
  6
Continuous
 62
     7
100
AcDbPolyline
 90
        2
 70
     0
 43
0.0
 10
7908096.8881
 20
-285317.0364
 10
7908101.0268
 20
-285312.9624
  0
LWPOLYLINE
  5
1C4
330
1F
100
AcDbEntity
  8
0
  6
Continuous
 62
     7
100
AcDbPolyline
 90
        2
 70
     0
 43
0.0
 10
7908091.7149
 20
-285317.3274
 10
7908092.7495
 20
-285316.1634
  0
LWPOLYLINE
  5
1C8
330
1F
100
AcDbEntity
  8
0
  6
Continuous
 62
     7
100
AcDbPolyline
 90
        2
 70
     0
 43
0.0
 10
7908092.7495
 20
-285316.1634
 10
7908097.9228
 20
-285310.9578
  0
LWPOLYLINE
  5
1CC
330
1F
100
AcDbEntity
  8
0
  6
Continuous
 62
     7
100
AcDbPolyline
 90
        2
 70
     0
 43
0.0
 10
7908097.9228
 20
-285310.9578
 10
7908101.0268
 20
-285308.0801
  0
LWPOLYLINE
  5
1D0
330
1F
100
AcDbEntity
  8
0
  6
Continuous
 62
     7
100
AcDbPolyline
 90
        2
 70
     0
 43
0.0
 10
7908091.7149
 20
-285311.8954
 10
7908094.3015
 20
-285309.5674
  0
LWPOLYLINE
  5
1D4
330
1F
100
AcDbEntity
  8
0
  6
Continuous
 62
     7
100
AcDbPolyline
 90
        2
 70
     0
 43
0.0
 10
7908094.3015
 20
-285309.5674
 10
7908099.4748
 20
-285304.3618
  0
LWPOLYLINE
  5
1D8
330
1F
100
AcDbEntity
  8
0
  6
Continuous
 62
     7
100
AcDbPolyline
 90
        2
 70
     0
 43
0.0
 10
7908099.4748
 20
-285304.3618
 10
7908101.0268
 20
-285302.7128
  0
LWPOLYLINE
  5
1DC
330
1F
100
AcDbEntity
  8
0
  6
Continuous
 62
     7
100
AcDbPolyline
 90
        2
 70
     0
 43
0.0
 10
7908097.4055
 20
-285337.4385
 10
7908101.0268
 20
-285333.7202
  0
LWPOLYLINE
  5
1E0
330
1F
100
AcDbEntity
  8
0
  6
Continuous
 62
     7
100
AcDbPolyline
 90
        2
 70
     0
 43
0.0
 10
7908101.0268
 20
-285333.7202
 10
7908101.0268
 20
-285333.4616
  0
LWPOLYLINE
  5
1E4
330
1F
100
AcDbEntity
  8
0
  6
Continuous
 62
     7
100
AcDbPolyline
 90
        2
 70
     0
 43
0.0
 10
7908091.7149
 20
-285306.4635
 10
7908096.8881
 20
-285301.4842
  0
LWPOLYLINE
  5
1E8
330
1F
100
AcDbEntity
  8
0
  6
Continuous
 62
     7
100
AcDbPolyline
 90
        2
 70
     0
 43
0.0
 10
7908096.8881
 20
-285301.4842
 10
7908100.5095
 20
-285297.7012
  0
LWPOLYLINE
  5
1EC
330
1F
100
AcDbEntity
  8
0
  6
Continuous
 62
     7
100
AcDbPolyline
 90
        2
 70
     0
 43
0.0
 10
7908092.7495
 20
-285337.1475
 10
7908094.3015
 20
-285335.6926
  0
LWPOLYLINE
  5
1F0
330
1F
100
AcDbEntity
  8
0
  6
Continuous
 62
     7
100
AcDbPolyline
 90
        2
 70
     0
 43
0.0
 10
7908094.3015
 20
-285335.6926
 10
7908099.4748
 20
-285330.3576
  0
LWPOLYLINE
  5
1F4
330
1F
100
AcDbEntity
  8
0
  6
Continuous
 62
     7
100
AcDbPolyline
 90
        2
 70
     0
 43
0.0
 10
7908099.4748
 20
-285330.3576
 10
7908101.0268
 20
-285328.5793
  0
LWPOLYLINE
  5
1F8
330
1F
100
AcDbEntity
  8
0
  6
Continuous
 62
     7
100
AcDbPolyline
 90
        2
 70
     0
 43
0.0
 10
7907902.3725
 20
-285321.9187
 10
7907907.5458
 20
-285316.6807
  0
LWPOLYLINE
  5
1FC
330
1F
100
AcDbEntity
  8
0
  6
Continuous
 62
     7
100
AcDbPolyline
 90
        2
 70
     0
 43
0.0
 10
7907907.5458
 20
-285316.6807
 10
7907911.6844
 20
-285312.5744
  0
LWPOLYLINE
  5
200
330
1F
100
AcDbEntity
  8
0
  6
Continuous
 62
     7
100
AcDbPolyline
 90
        2
 70
     0
 43
0.0
 10
7907902.3725
 20
-285316.5514
 10
7907903.4071
 20
-285315.4197
  0
LWPOLYLINE
  5
204
330
1F
100
AcDbEntity
  8
0
  6
Continuous
 62
     7
100
AcDbPolyline
 90
        2
 70
     0
 43
0.0
 10
7907903.4071
 20
-285315.4197
 10
7907908.5804
 20
-285310.1494
  0
LWPOLYLINE
  5
208
330
1F
100
AcDbEntity
  8
0
  6
Continuous
 62
     7
100
AcDbPolyline
 90
        2
 70
     0
 43
0.0
 10
7907908.5804
 20
-285310.1494
 10
7907911.6844
 20
-285307.1425
  0
LWPOLYLINE
  5
20C
330
1F
100
AcDbEntity
  8
0
  6
Continuous
 62
     7
100
AcDbPolyline
 90
        2
 70
     0
 43
0.0
 10
7907902.3725
 20
-285311.6691
 10
7907904.4418
 20
-285309.4058
  0
LWPOLYLINE
  5
210
330
1F
100
AcDbEntity
  8
0
  6
Continuous
 62
     7
100
AcDbPolyline
 90
        2
 70
     0
 43
0.0
 10
7907904.4418
 20
-285309.4058
 10
7907909.6151
 20
-285304.1355
  0
LWPOLYLINE
  5
214
330
1F
100
AcDbEntity
  8
0
  6
Continuous
 62
     7
100
AcDbPolyline
 90
        2
 70
     0
 43
0.0
 10
7907909.6151
 20
-285304.1355
 10
7907911.6844
 20
-285302.1955
  0
LWPOLYLINE
  5
218
330
1F
100
AcDbEntity
  8
0
  6
Continuous
 62
     7
100
AcDbPolyline
 90
        2
 70
     0
 43
0.0
 10
7907908.5804
 20
-285336.6625
 10
7907911.6844
 20
-285333.3322
  0
LWPOLYLINE
  5
21C
330
1F
100
AcDbEntity
  8
0
  6
Continuous
 62
     7
100
AcDbPolyline
 90
        2
 70
     0
 43
0.0
 10
7907902.3725
 20
-285306.3341
 10
7907902.3725
 20
-285306.2371
  0
LWPOLYLINE
  5
220
330
1F
100
AcDbEntity
  8
0
  6
Continuous
 62
     7
100
AcDbPolyline
 90
        2
 70
     0
 43
0.0
 10
7907902.3725
 20
-285306.2371
 10
7907907.5458
 20
-285300.8699
  0
LWPOLYLINE
  5
224
330
1F
100
AcDbEntity
  8
0
  6
Continuous
 62
     7
100
AcDbPolyline
 90
        2
 70
     0
 43
0.0
 10
7907907.5458
 20
-285300.8699
 10
7907910.6497
 20
-285297.6365
  0
LWPOLYLINE
  5
228
330
1F
100
AcDbEntity
  8
0
  6
Continuous
 62
     7
100
AcDbPolyline
 90
        2
 70
     0
 43
0.0
 10
7907902.3725
 20
-285337.0505
 10
7907904.4418
 20
-285335.0136
  0
LWPOLYLINE
  5
22C
330
1F
100
AcDbEntity
  8
0
  6
Continuous
 62
     7
100
AcDbPolyline
 90
        2
 70
     0
 43
0.0
 10
7907904.4418
 20
-285335.0136
 10
7907909.6151
 20
-285329.8403
  0
LWPOLYLINE
  5
230
330
1F
100
AcDbEntity
  8
0
  6
Continuous
 62
     7
100
AcDbPolyline
 90
        2
 70
     0
 43
0.0
 10
7907909.6151
 20
-285329.8403
 10
7907911.6844
 20
-285327.9003
  0
LWPOLYLINE
  5
234
330
1F
100
AcDbEntity
  8
0
  6
Continuous
 62
     7
100
AcDbPolyline
 90
        2
 70
     0
 43
0.0
 10
7907877.0234
 20
-285322.242
 10
7907882.1967
 20
-285317.004
  0
LWPOLYLINE
  5
238
330
1F
100
AcDbEntity
  8
0
  6
Continuous
 62
     7
100
AcDbPolyline
 90
        2
 70
     0
 43
0.0
 10
7907882.1967
 20
-285317.004
 10
7907886.3353
 20
-285312.8654
  0
LWPOLYLINE
  5
23C
330
1F
100
AcDbEntity
  8
0
  6
Continuous
 62
     7
100
AcDbPolyline
 90
        2
 70
     0
 43
0.0
 10
7907877.0234
 20
-285317.295
 10
7907878.058
 20
-285316.1634
  0
LWPOLYLINE
  5
240
330
1F
100
AcDbEntity
  8
0
  6
Continuous
 62
     7
100
AcDbPolyline
 90
        2
 70
     0
 43
0.0
 10
7907878.058
 20
-285316.1634
 10
7907883.2313
 20
-285310.9254
  0
LWPOLYLINE
  5
244
330
1F
100
AcDbEntity
  8
0
  6
Continuous
 62
     7
100
AcDbPolyline
 90
        2
 70
     0
 43
0.0
 10
7907883.2313
 20
-285310.9254
 10
7907886.3353
 20
-285307.9185
  0
LWPOLYLINE
  5
248
330
1F
100
AcDbEntity
  8
0
  6
Continuous
 62
     7
100
AcDbPolyline
 90
        2
 70
     0
 43
0.0
 10
7907877.0234
 20
-285311.8631
 10
7907879.0927
 20
-285309.5998
  0
LWPOLYLINE
  5
24C
330
1F
100
AcDbEntity
  8
0
  6
Continuous
 62
     7
100
AcDbPolyline
 90
        2
 70
     0
 43
0.0
 10
7907879.0927
 20
-285309.5998
 10
7907884.266
 20
-285304.3618
  0
LWPOLYLINE
  5
250
330
1F
100
AcDbEntity
  8
0
  6
Continuous
 62
     7
100
AcDbPolyline
 90
        2
 70
     0
 43
0.0
 10
7907884.266
 20
-285304.3618
 10
7907886.3353
 20
-285302.4865
  0
LWPOLYLINE
  5
254
330
1F
100
AcDbEntity
  8
0
  6
Continuous
 62
     7
100
AcDbPolyline
 90
        2
 70
     0
 43
0.0
 10
7907882.714
 20
-285337.4385
 10
7907885.818
 20
-285333.9789
  0
LWPOLYLINE
  5
258
330
1F
100
AcDbEntity
  8
0
  6
Continuous
 62
     7
100
AcDbPolyline
 90
        2
 70
     0
 43
0.0
 10
7907885.818
 20
-285333.9789
 10
7907886.3353
 20
-285333.6232
  0
LWPOLYLINE
  5
25C
330
1F
100
AcDbEntity
  8
0
  6
Continuous
 62
     7
100
AcDbPolyline
 90
        2
 70
     0
 43
0.0
 10
7907877.0234
 20
-285306.9161
 10
7907881.6793
 20
-285302.0338
  0
LWPOLYLINE
  5
260
330
1F
100
AcDbEntity
  8
0
  6
Continuous
 62
     7
100
AcDbPolyline
 90
        2
 70
     0
 43
0.0
 10
7907881.6793
 20
-285302.0338
 10
7907886.3353
 20
-285297.5395
  0
LWPOLYLINE
  5
264
330
1F
100
AcDbEntity
  8
0
  6
Continuous
 62
     7
100
AcDbPolyline
 90
        2
 70
     0
 43
0.0
 10
7907878.058
 20
-285337.1475
 10
7907878.5754
 20
-285336.3715
  0
LWPOLYLINE
  5
268
330
1F
100
AcDbEntity
  8
0
  6
Continuous
 62
     7
100
AcDbPolyline
 90
        2
 70
     0
 43
0.0
 10
7907878.5754
 20
-285336.3715
 10
7907883.7486
 20
-285331.0689
  0
LWPOLYLINE
  5
26C
330
1F
100
AcDbEntity
  8
0
  6
Continuous
 62
     7
100
AcDbPolyline
 90
        2
 70
     0
 43
0.0
 10
7907883.7486
 20
-285331.0689
 10
7907886.3353
 20
-285328.6763
  0
LWPOLYLINE
  5
270
330
1F
100
AcDbEntity
  8
0
  6
Continuous
 62
     7
100
AcDbPolyline
 90
        2
 70
     0
 43
0.0
 10
7907853.2262
 20
-285322.436
 10
7907858.3995
 20
-285317.2627
  0
LWPOLYLINE
  5
274
330
1F
100
AcDbEntity
  8
0
  6
Continuous
 62
     7
100
AcDbPolyline
 90
        2
 70
     0
 43
0.0
 10
7907858.3995
 20
-285317.2627
 10
7907862.0208
 20
-285313.8677
  0
LWPOLYLINE
  5
278
330
1F
100
AcDbEntity
  8
0
  6
Continuous
 62
     7
100
AcDbPolyline
 90
        2
 70
     0
 43
0.0
 10
7907853.2262
 20
-285317.004
 10
7907854.7782
 20
-285315.1934
  0
LWPOLYLINE
  5
27C
330
1F
100
AcDbEntity
  8
0
  6
Continuous
 62
     7
100
AcDbPolyline
 90
        2
 70
     0
 43
0.0
 10
7907854.7782
 20
-285315.1934
 10
7907859.9515
 20
-285309.9231
  0
LWPOLYLINE
  5
280
330
1F
100
AcDbEntity
  8
0
  6
Continuous
 62
     7
100
AcDbPolyline
 90
        2
 70
     0
 43
0.0
 10
7907859.9515
 20
-285309.9231
 10
7907861.5035
 20
-285308.5651
  0
LWPOLYLINE
  5
284
330
1F
100
AcDbEntity
  8
0
  6
Continuous
 62
     7
100
AcDbPolyline
 90
        2
 70
     0
 43
0.0
 10
7907853.2262
 20
-285312.0571
 10
7907857.3649
 20
-285308.1448
  0
LWPOLYLINE
  5
288
330
1F
100
AcDbEntity
  8
0
  6
Continuous
 62
     7
100
AcDbPolyline
 90
        2
 70
     0
 43
0.0
 10
7907857.3649
 20
-285308.1448
 10
7907861.5035
 20
-285303.7475
  0
LWPOLYLINE
  5
28C
330
1F
100
AcDbEntity
  8
0
  6
Continuous
 62
     7
100
AcDbPolyline
 90
        2
 70
     0
 43
0.0
 10
7907858.9169
 20
-285337.4709
 10
7907859.9515
 20
-285336.6625
  0
LWPOLYLINE
  5
290
330
1F
100
AcDbEntity
  8
0
  6
Continuous
 62
     7
100
AcDbPolyline
 90
        2
 70
     0
 43
0.0
 10
7907859.9515
 20
-285336.6625
 10
7907862.5382
 20
-285334.0759
  0
LWPOLYLINE
  5
294
330
1F
100
AcDbEntity
  8
0
  6
Continuous
 62
     7
100
AcDbPolyline
 90
        2
 70
     0
 43
0.0
 10
7907853.2262
 20
-285306.6251
 10
7907855.8129
 20
-285304.1032
  0
LWPOLYLINE
  5
298
330
1F
100
AcDbEntity
  8
0
  6
Continuous
 62
     7
100
AcDbPolyline
 90
        2
 70
     0
 43
0.0
 10
7907855.8129
 20
-285304.1032
 10
7907860.9862
 20
-285298.8975
  0
LWPOLYLINE
  5
29C
330
1F
100
AcDbEntity
  8
0
  6
Continuous
 62
     7
100
AcDbPolyline
 90
        2
 70
     0
 43
0.0
 10
7907860.9862
 20
-285298.8975
 10
7907861.5035
 20
-285298.4449
  0
LWPOLYLINE
  5
2A0
330
1F
100
AcDbEntity
  8
0
  6
Continuous
 62
     7
100
AcDbPolyline
 90
        2
 70
     0
 43
0.0
 10
7907853.7436
 20
-285337.1152
 10
7907858.3995
 20
-285332.2976
  0
LWPOLYLINE
  5
2A4
330
1F
100
AcDbEntity
  8
0
  6
Continuous
 62
     7
100
AcDbPolyline
 90
        2
 70
     0
 43
0.0
 10
7907858.3995
 20
-285332.2976
 10
7907862.0208
 20
-285328.7733
  0
LWPOLYLINE
  5
2A8
330
1F
100
AcDbEntity
  8
0
  6
Continuous
 62
     7
100
AcDbPolyline
 90
        2
 70
     0
 43
0.0
 10
7907829.9464
 20
-285321.6277
 10
7907835.1197
 20
-285316.3251
  0
LWPOLYLINE
  5
2AC
330
1F
100
AcDbEntity
  8
0
  6
Continuous
 62
     7
100
AcDbPolyline
 90
        2
 70
     0
 43
0.0
 10
7907835.1197
 20
-285316.3251
 10
7907838.741
 20
-285312.6391
  0
LWPOLYLINE
  5
2B0
330
1F
100
AcDbEntity
  8
0
  6
Continuous
 62
     7
100
AcDbPolyline
 90
        2
 70
     0
 43
0.0
 10
7907829.9464
 20
-285316.6807
 10
7907831.4984
 20
-285315.0964
  0
LWPOLYLINE
  5
2B4
330
1F
100
AcDbEntity
  8
0
  6
Continuous
 62
     7
100
AcDbPolyline
 90
        2
 70
     0
 43
0.0
 10
7907831.4984
 20
-285315.0964
 10
7907836.6717
 20
-285309.8261
  0
LWPOLYLINE
  5
2B8
330
1F
100
AcDbEntity
  8
0
  6
Continuous
 62
     7
100
AcDbPolyline
 90
        2
 70
     0
 43
0.0
 10
7907836.6717
 20
-285309.8261
 10
7907838.741
 20
-285307.7568
  0
LWPOLYLINE
  5
2BC
330
1F
100
AcDbEntity
  8
0
  6
Continuous
 62
     7
100
AcDbPolyline
 90
        2
 70
     0
 43
0.0
 10
7907829.9464
 20
-285311.2488
 10
7907833.0504
 20
-285308.0478
  0
LWPOLYLINE
  5
2C0
330
1F
100
AcDbEntity
  8
0
  6
Continuous
 62
     7
100
AcDbPolyline
 90
        2
 70
     0
 43
0.0
 10
7907833.0504
 20
-285308.0478
 10
7907838.2237
 20
-285302.8098
  0
LWPOLYLINE
  5
2C4
330
1F
100
AcDbEntity
  8
0
  6
Continuous
 62
     7
100
AcDbPolyline
 90
        2
 70
     0
 43
0.0
 10
7907838.2237
 20
-285302.8098
 10
7907838.741
 20
-285302.3895
  0
LWPOLYLINE
  5
2C8
330
1F
100
AcDbEntity
  8
0
  6
Continuous
 62
     7
100
AcDbPolyline
 90
        2
 70
     0
 43
0.0
 10
7907835.6371
 20
-285336.8242
 10
7907839.2584
 20
-285333.1382
  0
LWPOLYLINE
  5
2CC
330
1F
100
AcDbEntity
  8
0
  6
Continuous
 62
     7
100
AcDbPolyline
 90
        2
 70
     0
 43
0.0
 10
7907829.9464
 20
-285306.3018
 10
7907830.9811
 20
-285305.1378
  0
LWPOLYLINE
  5
2D0
330
1F
100
AcDbEntity
  8
0
  6
Continuous
 62
     7
100
AcDbPolyline
 90
        2
 70
     0
 43
0.0
 10
7907830.9811
 20
-285305.1378
 10
7907836.1544
 20
-285299.8999
  0
LWPOLYLINE
  5
2D4
330
1F
100
AcDbEntity
  8
0
  6
Continuous
 62
     7
100
AcDbPolyline
 90
        2
 70
     0
 43
0.0
 10
7907836.1544
 20
-285299.8999
 10
7907838.741
 20
-285297.5395
  0
LWPOLYLINE
  5
2D8
330
1F
100
AcDbEntity
  8
0
  6
Continuous
 62
     7
100
AcDbPolyline
 90
        2
 70
     0
 43
0.0
 10
7907830.9811
 20
-285336.5009
 10
7907834.0851
 20
-285333.6556
  0
LWPOLYLINE
  5
2DC
330
1F
100
AcDbEntity
  8
0
  6
Continuous
 62
     7
100
AcDbPolyline
 90
        2
 70
     0
 43
0.0
 10
7907834.0851
 20
-285333.6556
 10
7907839.2584
 20
-285328.4176
  0
LWPOLYLINE
  5
2E0
330
1F
100
AcDbEntity
  8
0
  6
Continuous
 62
     7
100
AcDbPolyline
 90
        2
 70
     0
 43
0.0
 10
7907839.2584
 20
-285328.4176
 10
7907839.2584
 20
-285328.2559
  0
LWPOLYLINE
  5
2E4
330
1F
100
AcDbEntity
  8
0
  6
Continuous
 62
     7
100
AcDbPolyline
 90
        2
 70
     0
 43
0.0
 10
7907807.7013
 20
-285321.757
 10
7907812.8746
 20
-285316.519
  0
LWPOLYLINE
  5
2E8
330
1F
100
AcDbEntity
  8
0
  6
Continuous
 62
     7
100
AcDbPolyline
 90
        2
 70
     0
 43
0.0
 10
7907812.8746
 20
-285316.519
 10
7907817.0132
 20
-285312.4128
  0
LWPOLYLINE
  5
2EC
330
1F
100
AcDbEntity
  8
0
  6
Continuous
 62
     7
100
AcDbPolyline
 90
        2
 70
     0
 43
0.0
 10
7907807.7013
 20
-285316.3251
 10
7907808.736
 20
-285315.1934
  0
LWPOLYLINE
  5
2F0
330
1F
100
AcDbEntity
  8
0
  6
Continuous
 62
     7
100
AcDbPolyline
 90
        2
 70
     0
 43
0.0
 10
7907808.736
 20
-285315.1934
 10
7907813.9092
 20
-285309.9554
  0
LWPOLYLINE
  5
2F4
330
1F
100
AcDbEntity
  8
0
  6
Continuous
 62
     7
100
AcDbPolyline
 90
        2
 70
     0
 43
0.0
 10
7907813.9092
 20
-285309.9554
 10
7907817.0132
 20
-285306.9808
  0
LWPOLYLINE
  5
2F8
330
1F
100
AcDbEntity
  8
0
  6
Continuous
 62
     7
100
AcDbPolyline
 90
        2
 70
     0
 43
0.0
 10
7907807.7013
 20
-285311.3781
 10
7907809.7706
 20
-285309.1148
  0
LWPOLYLINE
  5
2FC
330
1F
100
AcDbEntity
  8
0
  6
Continuous
 62
     7
100
AcDbPolyline
 90
        2
 70
     0
 43
0.0
 10
7907809.7706
 20
-285309.1148
 10
7907814.9439
 20
-285303.8768
  0
LWPOLYLINE
  5
300
330
1F
100
AcDbEntity
  8
0
  6
Continuous
 62
     7
100
AcDbPolyline
 90
        2
 70
     0
 43
0.0
 10
7907814.9439
 20
-285303.8768
 10
7907817.0132
 20
-285302.0338
  0
LWPOLYLINE
  5
304
330
1F
100
AcDbEntity
  8
0
  6
Continuous
 62
     7
100
AcDbPolyline
 90
        2
 70
     0
 43
0.0
 10
7907813.3919
 20
-285336.8242
 10
7907817.0132
 20
-285333.3969
  0
LWPOLYLINE
  5
308
330
1F
100
AcDbEntity
  8
0
  6
Continuous
 62
     7
100
AcDbPolyline
 90
        2
 70
     0
 43
0.0
 10
7907817.0132
 20
-285333.3969
 10
7907817.0132
 20
-285333.1706
  0
LWPOLYLINE
  5
30C
330
1F
100
AcDbEntity
  8
0
  6
Continuous
 62
     7
100
AcDbPolyline
 90
        2
 70
     0
 43
0.0
 10
7907807.7013
 20
-285305.9461
 10
7907812.8746
 20
-285300.9345
  0
LWPOLYLINE
  5
310
330
1F
100
AcDbEntity
  8
0
  6
Continuous
 62
     7
100
AcDbPolyline
 90
        2
 70
     0
 43
0.0
 10
7907812.8746
 20
-285300.9345
 10
7907816.4959
 20
-285297.1192
  0
LWPOLYLINE
  5
314
330
1F
100
AcDbEntity
  8
0
  6
Continuous
 62
     7
100
AcDbPolyline
 90
        2
 70
     0
 43
0.0
 10
7907808.736
 20
-285336.5009
 10
7907810.2879
 20
-285335.0782
  0
LWPOLYLINE
  5
318
330
1F
100
AcDbEntity
  8
0
  6
Continuous
 62
     7
100
AcDbPolyline
 90
        2
 70
     0
 43
0.0
 10
7907810.2879
 20
-285335.0782
 10
7907815.4612
 20
-285329.8403
  0
LWPOLYLINE
  5
31C
330
1F
100
AcDbEntity
  8
0
  6
Continuous
 62
     7
100
AcDbPolyline
 90
        2
 70
     0
 43
0.0
 10
7907815.4612
 20
-285329.8403
 10
7907817.0132
 20
-285328.2236
  0
LWPOLYLINE
  5
320
330
1F
100
AcDbEntity
  8
0
  6
Continuous
 62
     7
100
AcDbPolyline
 90
        2
 70
     0
 43
0.0
 10
7907787.0081
 20
-285321.3367
 10
7907792.1814
 20
-285316.1634
  0
LWPOLYLINE
  5
324
330
1F
100
AcDbEntity
  8
0
  6
Continuous
 62
     7
100
AcDbPolyline
 90
        2
 70
     0
 43
0.0
 10
7907792.1814
 20
-285316.1634
 10
7907795.8027
 20
-285312.7037
  0
LWPOLYLINE
  5
328
330
1F
100
AcDbEntity
  8
0
  6
Continuous
 62
     7
100
AcDbPolyline
 90
        2
 70
     0
 43
0.0
 10
7907787.0081
 20
-285315.9047
 10
7907788.5601
 20
-285314.1264
  0
LWPOLYLINE
  5
32C
330
1F
100
AcDbEntity
  8
0
  6
Continuous
 62
     7
100
AcDbPolyline
 90
        2
 70
     0
 43
0.0
 10
7907788.5601
 20
-285314.1264
 10
7907793.7334
 20
-285308.8238
  0
LWPOLYLINE
  5
330
330
1F
100
AcDbEntity
  8
0
  6
Continuous
 62
     7
100
AcDbPolyline
 90
        2
 70
     0
 43
0.0
 10
7907793.7334
 20
-285308.8238
 10
7907795.2854
 20
-285307.4011
  0
LWPOLYLINE
  5
334
330
1F
100
AcDbEntity
  8
0
  6
Continuous
 62
     7
100
AcDbPolyline
 90
        2
 70
     0
 43
0.0
 10
7907787.0081
 20
-285310.4404
 10
7907790.6294
 20
-285306.5928
  0
LWPOLYLINE
  5
338
330
1F
100
AcDbEntity
  8
0
  6
Continuous
 62
     7
100
AcDbPolyline
 90
        2
 70
     0
 43
0.0
 10
7907790.6294
 20
-285306.5928
 10
7907795.2854
 20
-285302.0985
  0
LWPOLYLINE
  5
33C
330
1F
100
AcDbEntity
  8
0
  6
Continuous
 62
     7
100
AcDbPolyline
 90
        2
 70
     0
 43
0.0
 10
7907792.6988
 20
-285336.2099
 10
7907793.7334
 20
-285335.4986
  0
LWPOLYLINE
  5
340
330
1F
100
AcDbEntity
  8
0
  6
Continuous
 62
     7
100
AcDbPolyline
 90
        2
 70
     0
 43
0.0
 10
7907793.7334
 20
-285335.4986
 10
7907796.3201
 20
-285332.9119
  0
LWPOLYLINE
  5
344
330
1F
100
AcDbEntity
  8
0
  6
Continuous
 62
     7
100
AcDbPolyline
 90
        2
 70
     0
 43
0.0
 10
7907787.0081
 20
-285305.5258
 10
7907789.5948
 20
-285303.0038
  0
LWPOLYLINE
  5
348
330
1F
100
AcDbEntity
  8
0
  6
Continuous
 62
     7
100
AcDbPolyline
 90
        2
 70
     0
 43
0.0
 10
7907789.5948
 20
-285303.0038
 10
7907794.7681
 20
-285297.7659
  0
LWPOLYLINE
  5
34C
330
1F
100
AcDbEntity
  8
0
  6
Continuous
 62
     7
100
AcDbPolyline
 90
        2
 70
     0
 43
0.0
 10
7907794.7681
 20
-285297.7659
 10
7907795.2854
 20
-285297.2809
  0
LWPOLYLINE
  5
350
330
1F
100
AcDbEntity
  8
0
  6
Continuous
 62
     7
100
AcDbPolyline
 90
        2
 70
     0
 43
0.0
 10
7907787.5255
 20
-285335.8866
 10
7907792.1814
 20
-285331.1659
  0
LWPOLYLINE
  5
354
330
1F
100
AcDbEntity
  8
0
  6
Continuous
 62
     7
100
AcDbPolyline
 90
        2
 70
     0
 43
0.0
 10
7907792.1814
 20
-285331.1659
 10
7907795.8027
 20
-285327.6093
  0
LWPOLYLINE
  5
358
330
1F
100
AcDbEntity
  8
0
  6
Continuous
 62
     7
100
AcDbPolyline
 90
        7
 70
     0
 43
2.0
 10
7908113.96
 20
-285296.5372
 10
7907964.9693
 20
-285296.5372
 10
7907960.8307
 20
-285296.5372
 10
7907778.2136
 20
-285296.5372
 10
7907778.2136
 20
-285337.5679
 10
7907958.7613
 20
-285337.7295
 10
7908113.96
 20
-285337.7295
  0
TEXT
  5
361
330
1F
100
AcDbEntity
  8
0
 62
     7
100
AcDbText
 10
7908100.5095
 20
-285208.3326
 30
0.0
 40
24.9935
  1
Articulation joint tie
 41
0.6259273699376227
 72
     5
 11
7908387.1097
 21
-285208.3326
 31
0.0
100
AcDbText
  0
LWPOLYLINE
  5
362
330
1F
100
AcDbEntity
  8
0
  6
Continuous
 62
     7
100
AcDbPolyline
 90
        2
 70
     0
 43
0.0
 10
7906771.4915
 20
-284148.9401
 10
7907183.2853
 20
-284148.9401
  0
LWPOLYLINE
  5
366
330
1F
100
AcDbEntity
  8
0
  6
Continuous
 62
     7
100
AcDbPolyline
 90
        2
 70
     0
 43
0.0
 10
7907598.1831
 20
-284148.9401
 10
7907195.1839
 20
-284148.9401
  0
LWPOLYLINE
  5
36A
330
1F
100
AcDbEntity
  8
0
  6
Continuous
 62
     7
100
AcDbPolyline
 90
        2
 70
     0
 43
0.0
 10
7907195.1839
 20
-284310.961
 10
7907305.3749
 20
-284310.961
  0
LWPOLYLINE
  5
36E
330
1F
100
AcDbEntity
  8
0
  6
Continuous
 62
     7
100
AcDbPolyline
 90
        2
 70
     0
 43
0.0
 10
7907195.1839
 20
-284234.946
 10
7907305.3749
 20
-284234.946
  0
LWPOLYLINE
  5
372
330
1F
100
AcDbEntity
  8
0
  6
Continuous
 62
     7
100
AcDbPolyline
 90
        2
 70
     0
 43
0.0
 10
7907305.3749
 20
-284234.946
 10
7907305.3749
 20
-284310.961
  0
LWPOLYLINE
  5
376
330
1F
100
AcDbEntity
  8
0
  6
Continuous
 62
     7
100
AcDbPolyline
 90
        2
 70
     0
 43
0.0
 10
7907315.2042
 20
-284234.946
 10
7907315.2042
 20
-284310.961
  0
LWPOLYLINE
  5
37A
330
1F
100
AcDbEntity
  8
0
  6
Continuous
 62
     7
100
AcDbPolyline
 90
        2
 70
     0
 43
0.0
 10
7907545.4156
 20
-284234.946
 10
7907545.4156
 20
-284310.961
  0
LWPOLYLINE
  5
37E
330
1F
100
AcDbEntity
  8
0
  6
Continuous
 62
     7
100
AcDbPolyline
 90
        2
 70
     0
 43
0.0
 10
7907555.2448
 20
-284234.946
 10
7907555.2448
 20
-284310.961
  0
LWPOLYLINE
  5
382
330
1F
100
AcDbEntity
  8
0
  6
Continuous
 62
     7
100
AcDbPolyline
 90
        2
 70
     0
 43
0.0
 10
7907183.2853
 20
-284234.946
 10
7907073.0943
 20
-284234.946
  0
LWPOLYLINE
  5
386
330
1F
100
AcDbEntity
  8
0
  6
Continuous
 62
     7
100
AcDbPolyline
 90
        2
 70
     0
 43
0.0
 10
7907063.265
 20
-284310.961
 10
7907063.265
 20
-284234.946
  0
LWPOLYLINE
  5
38A
330
1F
100
AcDbEntity
  8
0
  6
Continuous
 62
     7
100
AcDbPolyline
 90
        2
 70
     0
 43
0.0
 10
7907183.2853
 20
-284310.961
 10
7907073.0943
 20
-284310.961
  0
LWPOLYLINE
  5
38E
330
1F
100
AcDbEntity
  8
0
  6
Continuous
 62
     7
100
AcDbPolyline
 90
        2
 70
     0
 43
0.0
 10
7907073.0943
 20
-284310.961
 10
7907073.0943
 20
-284234.946
  0
LWPOLYLINE
  5
392
330
1F
100
AcDbEntity
  8
0
  6
Continuous
 62
     7
100
AcDbPolyline
 90
        2
 70
     0
 43
0.0
 10
7906771.4915
 20
-284224.9551
 10
7906943.2447
 20
-284224.9551
  0
LWPOLYLINE
  5
396
330
1F
100
AcDbEntity
  8
0
  6
Continuous
 62
     7
100
AcDbPolyline
 90
        2
 70
     0
 43
0.0
 10
7906943.2447
 20
-284224.9551
 10
7906943.2447
 20
-284148.9401
  0
LWPOLYLINE
  5
39A
330
1F
100
AcDbEntity
  8
0
  6
Continuous
 62
     7
100
AcDbPolyline
 90
        2
 70
     0
 43
0.0
 10
7907183.2853
 20
-284224.9551
 10
7906953.074
 20
-284224.9551
  0
LWPOLYLINE
  5
39E
330
1F
100
AcDbEntity
  8
0
  6
Continuous
 62
     7
100
AcDbPolyline
 90
        2
 70
     0
 43
0.0
 10
7906953.074
 20
-284224.9551
 10
7906953.074
 20
-284148.9401
  0
LWPOLYLINE
  5
3A2
330
1F
100
AcDbEntity
  8
0
  6
Continuous
 62
     7
100
AcDbPolyline
 90
        2
 70
     0
 43
0.0
 10
7906771.4915
 20
-284310.961
 10
7906823.2244
 20
-284310.961
  0
LWPOLYLINE
  5
3A6
330
1F
100
AcDbEntity
  8
0
  6
Continuous
 62
     7
100
AcDbPolyline
 90
        2
 70
     0
 43
0.0
 10
7906823.2244
 20
-284310.961
 10
7906823.2244
 20
-284234.946
  0
LWPOLYLINE
  5
3AA
330
1F
100
AcDbEntity
  8
0
  6
Continuous
 62
     7
100
AcDbPolyline
 90
        2
 70
     0
 43
0.0
 10
7906823.2244
 20
-284234.946
 10
7906771.4915
 20
-284234.946
  0
LWPOLYLINE
  5
3AE
330
1F
100
AcDbEntity
  8
0
  6
Continuous
 62
     7
100
AcDbPolyline
 90
        2
 70
     0
 43
0.0
 10
7906833.0537
 20
-284234.946
 10
7907063.265
 20
-284234.946
  0
LWPOLYLINE
  5
3B2
330
1F
100
AcDbEntity
  8
0
  6
Continuous
 62
     7
100
AcDbPolyline
 90
        2
 70
     0
 43
0.0
 10
7907195.1839
 20
-284224.9551
 10
7907425.3952
 20
-284224.9551
  0
LWPOLYLINE
  5
3B6
330
1F
100
AcDbEntity
  8
0
  6
Continuous
 62
     7
100
AcDbPolyline
 90
        2
 70
     0
 43
0.0
 10
7907425.3952
 20
-284224.9551
 10
7907425.3952
 20
-284148.9401
  0
LWPOLYLINE
  5
3BA
330
1F
100
AcDbEntity
  8
0
  6
Continuous
 62
     7
100
AcDbPolyline
 90
        2
 70
     0
 43
0.0
 10
7907598.1831
 20
-284224.9551
 10
7907435.2245
 20
-284224.9551
  0
LWPOLYLINE
  5
3BE
330
1F
100
AcDbEntity
  8
0
  6
Continuous
 62
     7
100
AcDbPolyline
 90
        2
 70
     0
 43
0.0
 10
7907435.2245
 20
-284224.9551
 10
7907435.2245
 20
-284148.9401
  0
LWPOLYLINE
  5
3C2
330
1F
100
AcDbEntity
  8
0
  6
Continuous
 62
     7
100
AcDbPolyline
 90
        2
 70
     0
 43
0.0
 10
7906771.4915
 20
-284320.9519
 10
7906943.2447
 20
-284320.9519
  0
LWPOLYLINE
  5
3C6
330
1F
100
AcDbEntity
  8
0
  6
Continuous
 62
     7
100
AcDbPolyline
 90
        2
 70
     0
 43
0.0
 10
7907183.2853
 20
-284320.9519
 10
7906953.074
 20
-284320.9519
  0
LWPOLYLINE
  5
3CA
330
1F
100
AcDbEntity
  8
0
  6
Continuous
 62
     7
100
AcDbPolyline
 90
        2
 70
     0
 43
0.0
 10
7907195.1839
 20
-284320.9519
 10
7907425.3952
 20
-284320.9519
  0
LWPOLYLINE
  5
3CE
330
1F
100
AcDbEntity
  8
0
  6
Continuous
 62
     7
100
AcDbPolyline
 90
        2
 70
     0
 43
0.0
 10
7907598.1831
 20
-284320.9519
 10
7907435.2245
 20
-284320.9519
  0
LWPOLYLINE
  5
3D2
330
1F
100
AcDbEntity
  8
0
  6
Continuous
 62
     7
100
AcDbPolyline
 90
        2
 70
     0
 43
0.0
 10
7907183.2853
 20
-284063.0311
 10
7907183.2853
 20
-284364.9572
  0
LWPOLYLINE
  5
3D6
330
1F
100
AcDbEntity
  8
0
  6
Continuous
 62
     7
100
AcDbPolyline
 90
        2
 70
     0
 43
0.0
 10
7907195.1839
 20
-284063.0311
 10
7907195.1839
 20
-284364.9572
  0
LWPOLYLINE
  5
3DA
330
1F
100
AcDbEntity
  8
0
  6
Continuous
 62
     7
100
AcDbPolyline
 90
        2
 70
     0
 43
0.0
 10
7906943.2447
 20
-284320.9519
 10
7906943.2447
 20
-284364.9572
  0
LWPOLYLINE
  5
3DE
330
1F
100
AcDbEntity
  8
0
  6
Continuous
 62
     7
100
AcDbPolyline
 90
        2
 70
     0
 43
0.0
 10
7906953.074
 20
-284320.9519
 10
7906953.074
 20
-284364.9572
  0
LWPOLYLINE
  5
3E2
330
1F
100
AcDbEntity
  8
0
  6
Continuous
 62
     7
100
AcDbPolyline
 90
        2
 70
     0
 43
0.0
 10
7907425.3952
 20
-284320.9519
 10
7907425.3952
 20
-284364.9572
  0
LWPOLYLINE
  5
3E6
330
1F
100
AcDbEntity
  8
0
  6
Continuous
 62
     7
100
AcDbPolyline
 90
        2
 70
     0
 43
0.0
 10
7907435.2245
 20
-284320.9519
 10
7907435.2245
 20
-284364.9572
  0
LWPOLYLINE
  5
3EA
330
1F
100
AcDbEntity
  8
0
  6
Continuous
 62
     7
100
AcDbPolyline
 90
        2
 70
     0
 43
0.0
 10
7907185.3546
 20
-284216.6778
 10
7907190.5279
 20
-284211.4399
  0
LWPOLYLINE
  5
3EE
330
1F
100
AcDbEntity
  8
0
  6
Continuous
 62
     7
100
AcDbPolyline
 90
        2
 70
     0
 43
0.0
 10
7907190.5279
 20
-284211.4399
 10
7907192.5972
 20
-284209.4352
  0
LWPOLYLINE
  5
3F2
330
1F
100
AcDbEntity
  8
0
  6
Continuous
 62
     7
100
AcDbPolyline
 90
        2
 70
     0
 43
0.0
 10
7907185.3546
 20
-284211.0519
 10
7907188.4586
 20
-284207.8186
  0
LWPOLYLINE
  5
3F6
330
1F
100
AcDbEntity
  8
0
  6
Continuous
 62
     7
100
AcDbPolyline
 90
        2
 70
     0
 43
0.0
 10
7907188.4586
 20
-284207.8186
 10
7907192.5972
 20
-284203.8093
  0
LWPOLYLINE
  5
3FA
330
1F
100
AcDbEntity
  8
0
  6
Continuous
 62
     7
100
AcDbPolyline
 90
        2
 70
     0
 43
0.0
 10
7907185.3546
 20
-284206.0403
 10
7907186.3893
 20
-284204.8439
  0
LWPOLYLINE
  5
3FE
330
1F
100
AcDbEntity
  8
0
  6
Continuous
 62
     7
100
AcDbPolyline
 90
        2
 70
     0
 43
0.0
 10
7907186.3893
 20
-284204.8439
 10
7907191.5626
 20
-284199.606
  0
LWPOLYLINE
  5
402
330
1F
100
AcDbEntity
  8
0
  6
Continuous
 62
     7
100
AcDbPolyline
 90
        2
 70
     0
 43
0.0
 10
7907191.5626
 20
-284199.606
 10
7907192.5972
 20
-284198.7976
  0
LWPOLYLINE
  5
406
330
1F
100
AcDbEntity
  8
0
  6
Continuous
 62
     7
100
AcDbPolyline
 90
        2
 70
     0
 43
0.0
 10
7907185.3546
 20
-284201.0286
 10
7907190.0106
 20
-284196.599
  0
LWPOLYLINE
  5
40A
330
1F
100
AcDbEntity
  8
0
  6
Continuous
 62
     7
100
AcDbPolyline
 90
        2
 70
     0
 43
0.0
 10
7907190.0106
 20
-284196.599
 10
7907192.5972
 20
-284193.786
  0
LWPOLYLINE
  5
40E
330
1F
100
AcDbEntity
  8
0
  6
Continuous
 62
     7
100
AcDbPolyline
 90
        2
 70
     0
 43
0.0
 10
7907185.3546
 20
-284195.4027
 10
7907187.9413
 20
-284192.9777
  0
LWPOLYLINE
  5
412
330
1F
100
AcDbEntity
  8
0
  6
Continuous
 62
     7
100
AcDbPolyline
 90
        2
 70
     0
 43
0.0
 10
7907187.9413
 20
-284192.9777
 10
7907192.5972
 20
-284188.1601
  0
LWPOLYLINE
  5
416
330
1F
100
AcDbEntity
  8
0
  6
Continuous
 62
     7
100
AcDbPolyline
 90
        2
 70
     0
 43
0.0
 10
7907185.3546
 20
-284190.3911
 10
7907185.872
 20
-284189.9707
  0
LWPOLYLINE
  5
41A
330
1F
100
AcDbEntity
  8
0
  6
Continuous
 62
     7
100
AcDbPolyline
 90
        2
 70
     0
 43
0.0
 10
7907185.872
 20
-284189.9707
 10
7907191.0453
 20
-284184.7328
  0
LWPOLYLINE
  5
41E
330
1F
100
AcDbEntity
  8
0
  6
Continuous
 62
     7
100
AcDbPolyline
 90
        2
 70
     0
 43
0.0
 10
7907191.0453
 20
-284184.7328
 10
7907192.5972
 20
-284183.1484
  0
LWPOLYLINE
  5
422
330
1F
100
AcDbEntity
  8
0
  6
Continuous
 62
     7
100
AcDbPolyline
 90
        2
 70
     0
 43
0.0
 10
7907185.3546
 20
-284185.3794
 10
7907188.9759
 20
-284181.7581
  0
LWPOLYLINE
  5
426
330
1F
100
AcDbEntity
  8
0
  6
Continuous
 62
     7
100
AcDbPolyline
 90
        2
 70
     0
 43
0.0
 10
7907188.9759
 20
-284181.7581
 10
7907192.5972
 20
-284178.1368
  0
LWPOLYLINE
  5
42A
330
1F
100
AcDbEntity
  8
0
  6
Continuous
 62
     7
100
AcDbPolyline
 90
        2
 70
     0
 43
0.0
 10
7907185.3546
 20
-284179.7535
 10
7907186.9066
 20
-284178.1368
  0
LWPOLYLINE
  5
42E
330
1F
100
AcDbEntity
  8
0
  6
Continuous
 62
     7
100
AcDbPolyline
 90
        2
 70
     0
 43
0.0
 10
7907186.9066
 20
-284178.1368
 10
7907192.0799
 20
-284172.8989
  0
LWPOLYLINE
  5
432
330
1F
100
AcDbEntity
  8
0
  6
Continuous
 62
     7
100
AcDbPolyline
 90
        2
 70
     0
 43
0.0
 10
7907192.0799
 20
-284172.8989
 10
7907192.5972
 20
-284172.5109
  0
LWPOLYLINE
  5
436
330
1F
100
AcDbEntity
  8
0
  6
Continuous
 62
     7
100
AcDbPolyline
 90
        2
 70
     0
 43
0.0
 10
7907185.3546
 20
-284174.7419
 10
7907190.0106
 20
-284169.8919
  0
LWPOLYLINE
  5
43A
330
1F
100
AcDbEntity
  8
0
  6
Continuous
 62
     7
100
AcDbPolyline
 90
        2
 70
     0
 43
0.0
 10
7907190.0106
 20
-284169.8919
 10
7907192.5972
 20
-284167.4992
  0
LWPOLYLINE
  5
43E
330
1F
100
AcDbEntity
  8
0
  6
Continuous
 62
     7
100
AcDbPolyline
 90
        2
 70
     0
 43
0.0
 10
7907185.3546
 20
-284169.7302
 10
7907187.9413
 20
-284166.8849
  0
LWPOLYLINE
  5
442
330
1F
100
AcDbEntity
  8
0
  6
Continuous
 62
     7
100
AcDbPolyline
 90
        2
 70
     0
 43
0.0
 10
7907187.9413
 20
-284166.8849
 10
7907192.5972
 20
-284162.4876
  0
LWPOLYLINE
  5
446
330
1F
100
AcDbEntity
  8
0
  6
Continuous
 62
     7
100
AcDbPolyline
 90
        2
 70
     0
 43
0.0
 10
7907185.3546
 20
-284164.0719
 10
7907186.3893
 20
-284163.2313
  0
LWPOLYLINE
  5
44A
330
1F
100
AcDbEntity
  8
0
  6
Continuous
 62
     7
100
AcDbPolyline
 90
        2
 70
     0
 43
0.0
 10
7907186.3893
 20
-284163.2313
 10
7907191.5626
 20
-284158.0257
  0
LWPOLYLINE
  5
44E
330
1F
100
AcDbEntity
  8
0
  6
Continuous
 62
     7
100
AcDbPolyline
 90
        2
 70
     0
 43
0.0
 10
7907191.5626
 20
-284158.0257
 10
7907192.5972
 20
-284156.8617
  0
LWPOLYLINE
  5
452
330
1F
100
AcDbEntity
  8
0
  6
Continuous
 62
     7
100
AcDbPolyline
 90
        2
 70
     0
 43
0.0
 10
7907185.3546
 20
-284159.0603
 10
7907189.4933
 20
-284154.9864
  0
LWPOLYLINE
  5
456
330
1F
100
AcDbEntity
  8
0
  6
Continuous
 62
     7
100
AcDbPolyline
 90
        2
 70
     0
 43
0.0
 10
7907189.4933
 20
-284154.9864
 10
7907192.5972
 20
-284151.85
  0
LWPOLYLINE
  5
45A
330
1F
100
AcDbEntity
  8
0
  6
Continuous
 62
     7
100
AcDbPolyline
 90
        2
 70
     0
 43
0.0
 10
7907185.3546
 20
-284154.081
 10
7907187.424
 20
-284152.0117
  0
LWPOLYLINE
  5
45E
330
1F
100
AcDbEntity
  8
0
  6
Continuous
 62
     7
100
AcDbPolyline
 90
        2
 70
     0
 43
0.0
 10
7907187.424
 20
-284152.0117
 10
7907192.5972
 20
-284146.8384
  0
LWPOLYLINE
  5
462
330
1F
100
AcDbEntity
  8
0
  6
Continuous
 62
     7
100
AcDbPolyline
 90
        2
 70
     0
 43
0.0
 10
7907185.3546
 20
-284149.0694
 10
7907185.3546
 20
-284149.0047
  0
LWPOLYLINE
  5
466
330
1F
100
AcDbEntity
  8
0
  6
Continuous
 62
     7
100
AcDbPolyline
 90
        2
 70
     0
 43
0.0
 10
7907185.3546
 20
-284149.0047
 10
7907190.5279
 20
-284143.7668
  0
LWPOLYLINE
  5
46A
330
1F
100
AcDbEntity
  8
0
  6
Continuous
 62
     7
100
AcDbPolyline
 90
        2
 70
     0
 43
0.0
 10
7907190.5279
 20
-284143.7668
 10
7907192.5972
 20
-284141.8268
  0
LWPOLYLINE
  5
46E
330
1F
100
AcDbEntity
  8
0
  6
Continuous
 62
     7
100
AcDbPolyline
 90
        2
 70
     0
 43
0.0
 10
7907185.3546
 20
-284143.4111
 10
7907188.4586
 20
-284140.1455
  0
LWPOLYLINE
  5
472
330
1F
100
AcDbEntity
  8
0
  6
Continuous
 62
     7
100
AcDbPolyline
 90
        2
 70
     0
 43
0.0
 10
7907188.4586
 20
-284140.1455
 10
7907192.5972
 20
-284136.2009
  0
LWPOLYLINE
  5
476
330
1F
100
AcDbEntity
  8
0
  6
Continuous
 62
     7
100
AcDbPolyline
 90
        2
 70
     0
 43
0.0
 10
7907185.3546
 20
-284138.3995
 10
7907186.9066
 20
-284137.1062
  0
LWPOLYLINE
  5
47A
330
1F
100
AcDbEntity
  8
0
  6
Continuous
 62
     7
100
AcDbPolyline
 90
        2
 70
     0
 43
0.0
 10
7907186.9066
 20
-284137.1062
 10
7907192.0799
 20
-284131.9006
  0
LWPOLYLINE
  5
47E
330
1F
100
AcDbEntity
  8
0
  6
Continuous
 62
     7
100
AcDbPolyline
 90
        2
 70
     0
 43
0.0
 10
7907192.0799
 20
-284131.9006
 10
7907192.5972
 20
-284131.1892
  0
LWPOLYLINE
  5
482
330
1F
100
AcDbEntity
  8
0
  6
Continuous
 62
     7
100
AcDbPolyline
 90
        2
 70
     0
 43
0.0
 10
7907185.3546
 20
-284133.3879
 10
7907190.0106
 20
-284128.8612
  0
LWPOLYLINE
  5
486
330
1F
100
AcDbEntity
  8
0
  6
Continuous
 62
     7
100
AcDbPolyline
 90
        2
 70
     0
 43
0.0
 10
7907190.0106
 20
-284128.8612
 10
7907192.5972
 20
-284126.1776
  0
LWPOLYLINE
  5
48A
330
1F
100
AcDbEntity
  8
0
  6
Continuous
 62
     7
100
AcDbPolyline
 90
        2
 70
     0
 43
0.0
 10
7907185.3546
 20
-284127.7619
 10
7907187.9413
 20
-284125.2399
  0
LWPOLYLINE
  5
48E
330
1F
100
AcDbEntity
  8
0
  6
Continuous
 62
     7
100
AcDbPolyline
 90
        2
 70
     0
 43
0.0
 10
7907187.9413
 20
-284125.2399
 10
7907192.5972
 20
-284120.5193
  0
LWPOLYLINE
  5
492
330
1F
100
AcDbEntity
  8
0
  6
Continuous
 62
     7
100
AcDbPolyline
 90
        2
 70
     0
 43
0.0
 10
7907185.3546
 20
-284122.7503
 10
7907185.872
 20
-284122.233
  0
LWPOLYLINE
  5
496
330
1F
100
AcDbEntity
  8
0
  6
Continuous
 62
     7
100
AcDbPolyline
 90
        2
 70
     0
 43
0.0
 10
7907185.872
 20
-284122.233
 10
7907191.0453
 20
-284116.995
  0
LWPOLYLINE
  5
49A
330
1F
100
AcDbEntity
  8
0
  6
Continuous
 62
     7
100
AcDbPolyline
 90
        2
 70
     0
 43
0.0
 10
7907191.0453
 20
-284116.995
 10
7907192.5972
 20
-284115.5077
  0
LWPOLYLINE
  5
49E
330
1F
100
AcDbEntity
  8
0
  6
Continuous
 62
     7
100
AcDbPolyline
 90
        2
 70
     0
 43
0.0
 10
7907185.3546
 20
-284117.7387
 10
7907188.9759
 20
-284113.988
  0
LWPOLYLINE
  5
4A2
330
1F
100
AcDbEntity
  8
0
  6
Continuous
 62
     7
100
AcDbPolyline
 90
        2
 70
     0
 43
0.0
 10
7907188.9759
 20
-284113.988
 10
7907192.5972
 20
-284110.4961
  0
LWPOLYLINE
  5
4A6
330
1F
100
AcDbEntity
  8
0
  6
Continuous
 62
     7
100
AcDbPolyline
 90
        2
 70
     0
 43
0.0
 10
7907185.3546
 20
-284112.1127
 10
7907186.9066
 20
-284110.3667
  0
LWPOLYLINE
  5
4AA
330
1F
100
AcDbEntity
  8
0
  6
Continuous
 62
     7
100
AcDbPolyline
 90
        2
 70
     0
 43
0.0
 10
7907186.9066
 20
-284110.3667
 10
7907192.0799
 20
-284105.1288
  0
LWPOLYLINE
  5
4AE
330
1F
100
AcDbEntity
  8
0
  6
Continuous
 62
     7
100
AcDbPolyline
 90
        2
 70
     0
 43
0.0
 10
7907192.0799
 20
-284105.1288
 10
7907192.5972
 20
-284104.8701
  0
LWPOLYLINE
  5
4B2
330
1F
100
AcDbEntity
  8
0
  6
Continuous
 62
     7
100
AcDbPolyline
 90
        2
 70
     0
 43
0.0
 10
7907185.3546
 20
-284107.1011
 10
7907190.5279
 20
-284102.1541
  0
LWPOLYLINE
  5
4B6
330
1F
100
AcDbEntity
  8
0
  6
Continuous
 62
     7
100
AcDbPolyline
 90
        2
 70
     0
 43
0.0
 10
7907190.5279
 20
-284102.1541
 10
7907192.5972
 20
-284099.8585
  0
LWPOLYLINE
  5
4BA
330
1F
100
AcDbEntity
  8
0
  6
Continuous
 62
     7
100
AcDbPolyline
 90
        2
 70
     0
 43
0.0
 10
7907185.3546
 20
-284102.0895
 10
7907188.4586
 20
-284099.1472
  0
LWPOLYLINE
  5
4BE
330
1F
100
AcDbEntity
  8
0
  6
Continuous
 62
     7
100
AcDbPolyline
 90
        2
 70
     0
 43
0.0
 10
7907188.4586
 20
-284099.1472
 10
7907192.5972
 20
-284094.8469
  0
LWPOLYLINE
  5
4C2
330
1F
100
AcDbEntity
  8
0
  6
Continuous
 62
     7
100
AcDbPolyline
 90
        2
 70
     0
 43
0.0
 10
7907185.3546
 20
-284096.4635
 10
7907186.3893
 20
-284095.5259
  0
LWPOLYLINE
  5
4C6
330
1F
100
AcDbEntity
  8
0
  6
Continuous
 62
     7
100
AcDbPolyline
 90
        2
 70
     0
 43
0.0
 10
7907186.3893
 20
-284095.5259
 10
7907191.5626
 20
-284090.2879
  0
LWPOLYLINE
  5
4CA
330
1F
100
AcDbEntity
  8
0
  6
Continuous
 62
     7
100
AcDbPolyline
 90
        2
 70
     0
 43
0.0
 10
7907191.5626
 20
-284090.2879
 10
7907192.5972
 20
-284089.2209
  0
LWPOLYLINE
  5
4CE
330
1F
100
AcDbEntity
  8
0
  6
Continuous
 62
     7
100
AcDbPolyline
 90
        2
 70
     0
 43
0.0
 10
7907185.3546
 20
-284091.4519
 10
7907189.4933
 20
-284087.2809
  0
LWPOLYLINE
  5
4D2
330
1F
100
AcDbEntity
  8
0
  6
Continuous
 62
     7
100
AcDbPolyline
 90
        2
 70
     0
 43
0.0
 10
7907189.4933
 20
-284087.2809
 10
7907192.5972
 20
-284084.2093
  0
LWPOLYLINE
  5
4D6
330
1F
100
AcDbEntity
  8
0
  6
Continuous
 62
     7
100
AcDbPolyline
 90
        2
 70
     0
 43
0.0
 10
7907185.3546
 20
-284086.4403
 10
7907187.424
 20
-284084.274
  0
LWPOLYLINE
  5
4DA
330
1F
100
AcDbEntity
  8
0
  6
Continuous
 62
     7
100
AcDbPolyline
 90
        2
 70
     0
 43
0.0
 10
7907187.424
 20
-284084.274
 10
7907192.5972
 20
-284079.1977
  0
LWPOLYLINE
  5
4DE
330
1F
100
AcDbEntity
  8
0
  6
Continuous
 62
     7
100
AcDbPolyline
 90
        2
 70
     0
 43
0.0
 10
7907185.3546
 20
-284080.8143
 10
7907185.3546
 20
-284080.685
  0
LWPOLYLINE
  5
4E2
330
1F
100
AcDbEntity
  8
0
  6
Continuous
 62
     7
100
AcDbPolyline
 90
        2
 70
     0
 43
0.0
 10
7907185.3546
 20
-284080.685
 10
7907190.5279
 20
-284075.447
  0
LWPOLYLINE
  5
4E6
330
1F
100
AcDbEntity
  8
0
  6
Continuous
 62
     7
100
AcDbPolyline
 90
        2
 70
     0
 43
0.0
 10
7907190.5279
 20
-284075.447
 10
7907192.5972
 20
-284073.5717
  0
LWPOLYLINE
  5
4EA
330
1F
100
AcDbEntity
  8
0
  6
Continuous
 62
     7
100
AcDbPolyline
 90
        2
 70
     0
 43
0.0
 10
7907185.3546
 20
-284075.8027
 10
7907188.9759
 20
-284072.4401
  0
LWPOLYLINE
  5
4EE
330
1F
100
AcDbEntity
  8
0
  6
Continuous
 62
     7
100
AcDbPolyline
 90
        2
 70
     0
 43
0.0
 10
7907188.9759
 20
-284072.4401
 10
7907192.5972
 20
-284068.5601
  0
LWPOLYLINE
  5
4F2
330
1F
100
AcDbEntity
  8
0
  6
Continuous
 62
     7
100
AcDbPolyline
 90
        2
 70
     0
 43
0.0
 10
7907185.3546
 20
-284070.7911
 10
7907186.9066
 20
-284069.4331
  0
LWPOLYLINE
  5
4F6
330
1F
100
AcDbEntity
  8
0
  6
Continuous
 62
     7
100
AcDbPolyline
 90
        2
 70
     0
 43
0.0
 10
7907186.9066
 20
-284069.4331
 10
7907192.0799
 20
-284064.1951
  0
LWPOLYLINE
  5
4FA
330
1F
100
AcDbEntity
  8
0
  6
Continuous
 62
     7
100
AcDbPolyline
 90
        2
 70
     0
 43
0.0
 10
7907192.0799
 20
-284064.1951
 10
7907192.5972
 20
-284063.5485
  0
LWPOLYLINE
  5
4FE
330
1F
100
AcDbEntity
  8
0
  6
Continuous
 62
     7
100
AcDbPolyline
 90
        2
 70
     0
 43
0.0
 10
7907185.3546
 20
-284065.7795
 10
7907189.4933
 20
-284061.8025
  0
LWPOLYLINE
  5
502
330
1F
100
AcDbEntity
  8
0
  6
Continuous
 62
     7
100
AcDbPolyline
 90
        2
 70
     0
 43
0.0
 10
7907185.3546
 20
-284221.6894
 10
7907185.872
 20
-284221.1721
  0
LWPOLYLINE
  5
506
330
1F
100
AcDbEntity
  8
0
  6
Continuous
 62
     7
100
AcDbPolyline
 90
        2
 70
     0
 43
0.0
 10
7907185.872
 20
-284221.1721
 10
7907191.0453
 20
-284215.9342
  0
LWPOLYLINE
  5
50A
330
1F
100
AcDbEntity
  8
0
  6
Continuous
 62
     7
100
AcDbPolyline
 90
        2
 70
     0
 43
0.0
 10
7907191.0453
 20
-284215.9342
 10
7907192.5972
 20
-284214.4468
  0
LWPOLYLINE
  5
50E
330
1F
100
AcDbEntity
  8
0
  6
Continuous
 62
     7
100
AcDbPolyline
 90
        2
 70
     0
 43
0.0
 10
7907185.3546
 20
-284226.7011
 10
7907188.9759
 20
-284222.9504
  0
LWPOLYLINE
  5
512
330
1F
100
AcDbEntity
  8
0
  6
Continuous
 62
     7
100
AcDbPolyline
 90
        2
 70
     0
 43
0.0
 10
7907188.9759
 20
-284222.9504
 10
7907192.5972
 20
-284219.4585
  0
LWPOLYLINE
  5
516
330
1F
100
AcDbEntity
  8
0
  6
Continuous
 62
     7
100
AcDbPolyline
 90
        2
 70
     0
 43
0.0
 10
7907185.3546
 20
-284231.7127
 10
7907186.9066
 20
-284229.9667
  0
LWPOLYLINE
  5
51A
330
1F
100
AcDbEntity
  8
0
  6
Continuous
 62
     7
100
AcDbPolyline
 90
        2
 70
     0
 43
0.0
 10
7907186.9066
 20
-284229.9667
 10
7907192.0799
 20
-284224.7288
  0
LWPOLYLINE
  5
51E
330
1F
100
AcDbEntity
  8
0
  6
Continuous
 62
     7
100
AcDbPolyline
 90
        2
 70
     0
 43
0.0
 10
7907192.0799
 20
-284224.7288
 10
7907192.5972
 20
-284224.4701
  0
LWPOLYLINE
  5
522
330
1F
100
AcDbEntity
  8
0
  6
Continuous
 62
     7
100
AcDbPolyline
 90
        2
 70
     0
 43
0.0
 10
7907185.3546
 20
-284237.3386
 10
7907190.5279
 20
-284232.3917
  0
LWPOLYLINE
  5
526
330
1F
100
AcDbEntity
  8
0
  6
Continuous
 62
     7
100
AcDbPolyline
 90
        2
 70
     0
 43
0.0
 10
7907190.5279
 20
-284232.3917
 10
7907192.5972
 20
-284230.096
  0
LWPOLYLINE
  5
52A
330
1F
100
AcDbEntity
  8
0
  6
Continuous
 62
     7
100
AcDbPolyline
 90
        2
 70
     0
 43
0.0
 10
7907185.3546
 20
-284242.3503
 10
7907188.4586
 20
-284239.408
  0
LWPOLYLINE
  5
52E
330
1F
100
AcDbEntity
  8
0
  6
Continuous
 62
     7
100
AcDbPolyline
 90
        2
 70
     0
 43
0.0
 10
7907188.4586
 20
-284239.408
 10
7907192.5972
 20
-284235.1077
  0
LWPOLYLINE
  5
532
330
1F
100
AcDbEntity
  8
0
  6
Continuous
 62
     7
100
AcDbPolyline
 90
        2
 70
     0
 43
0.0
 10
7907185.3546
 20
-284247.3619
 10
7907186.3893
 20
-284246.4242
  0
LWPOLYLINE
  5
536
330
1F
100
AcDbEntity
  8
0
  6
Continuous
 62
     7
100
AcDbPolyline
 90
        2
 70
     0
 43
0.0
 10
7907186.3893
 20
-284246.4242
 10
7907191.5626
 20
-284241.1863
  0
LWPOLYLINE
  5
53A
330
1F
100
AcDbEntity
  8
0
  6
Continuous
 62
     7
100
AcDbPolyline
 90
        2
 70
     0
 43
0.0
 10
7907191.5626
 20
-284241.1863
 10
7907192.5972
 20
-284240.1193
  0
LWPOLYLINE
  5
53E
330
1F
100
AcDbEntity
  8
0
  6
Continuous
 62
     7
100
AcDbPolyline
 90
        2
 70
     0
 43
0.0
 10
7907185.3546
 20
-284252.9878
 10
7907189.4933
 20
-284248.8492
  0
LWPOLYLINE
  5
542
330
1F
100
AcDbEntity
  8
0
  6
Continuous
 62
     7
100
AcDbPolyline
 90
        2
 70
     0
 43
0.0
 10
7907189.4933
 20
-284248.8492
 10
7907192.5972
 20
-284245.7776
  0
LWPOLYLINE
  5
546
330
1F
100
AcDbEntity
  8
0
  6
Continuous
 62
     7
100
AcDbPolyline
 90
        2
 70
     0
 43
0.0
 10
7907185.3546
 20
-284257.9995
 10
7907187.424
 20
-284255.8332
  0
LWPOLYLINE
  5
54A
330
1F
100
AcDbEntity
  8
0
  6
Continuous
 62
     7
100
AcDbPolyline
 90
        2
 70
     0
 43
0.0
 10
7907187.424
 20
-284255.8332
 10
7907192.5972
 20
-284250.7892
  0
LWPOLYLINE
  5
54E
330
1F
100
AcDbEntity
  8
0
  6
Continuous
 62
     7
100
AcDbPolyline
 90
        2
 70
     0
 43
0.0
 10
7907185.3546
 20
-284263.0111
 10
7907185.3546
 20
-284262.8494
  0
LWPOLYLINE
  5
552
330
1F
100
AcDbEntity
  8
0
  6
Continuous
 62
     7
100
AcDbPolyline
 90
        2
 70
     0
 43
0.0
 10
7907185.3546
 20
-284262.8494
 10
7907190.5279
 20
-284257.6438
  0
LWPOLYLINE
  5
556
330
1F
100
AcDbEntity
  8
0
  6
Continuous
 62
     7
100
AcDbPolyline
 90
        2
 70
     0
 43
0.0
 10
7907190.5279
 20
-284257.6438
 10
7907192.5972
 20
-284255.8008
  0
LWPOLYLINE
  5
55A
330
1F
100
AcDbEntity
  8
0
  6
Continuous
 62
     7
100
AcDbPolyline
 90
        2
 70
     0
 43
0.0
 10
7907185.3546
 20
-284268.6694
 10
7907188.9759
 20
-284265.2744
  0
LWPOLYLINE
  5
55E
330
1F
100
AcDbEntity
  8
0
  6
Continuous
 62
     7
100
AcDbPolyline
 90
        2
 70
     0
 43
0.0
 10
7907188.9759
 20
-284265.2744
 10
7907192.5972
 20
-284261.4268
  0
LWPOLYLINE
  5
562
330
1F
100
AcDbEntity
  8
0
  6
Continuous
 62
     7
100
AcDbPolyline
 90
        2
 70
     0
 43
0.0
 10
7907185.3546
 20
-284273.681
 10
7907186.9066
 20
-284272.2907
  0
LWPOLYLINE
  5
566
330
1F
100
AcDbEntity
  8
0
  6
Continuous
 62
     7
100
AcDbPolyline
 90
        2
 70
     0
 43
0.0
 10
7907186.9066
 20
-284272.2907
 10
7907192.0799
 20
-284267.0527
  0
LWPOLYLINE
  5
56A
330
1F
100
AcDbEntity
  8
0
  6
Continuous
 62
     7
100
AcDbPolyline
 90
        2
 70
     0
 43
0.0
 10
7907192.0799
 20
-284267.0527
 10
7907192.5972
 20
-284266.4384
  0
LWPOLYLINE
  5
56E
330
1F
100
AcDbEntity
  8
0
  6
Continuous
 62
     7
100
AcDbPolyline
 90
        2
 70
     0
 43
0.0
 10
7907185.3546
 20
-284278.6603
 10
7907190.0106
 20
-284274.0367
  0
LWPOLYLINE
  5
572
330
1F
100
AcDbEntity
  8
0
  6
Continuous
 62
     7
100
AcDbPolyline
 90
        2
 70
     0
 43
0.0
 10
7907190.0106
 20
-284274.0367
 10
7907192.5972
 20
-284271.45
  0
LWPOLYLINE
  5
576
330
1F
100
AcDbEntity
  8
0
  6
Continuous
 62
     7
100
AcDbPolyline
 90
        2
 70
     0
 43
0.0
 10
7907185.3546
 20
-284284.3186
 10
7907187.9413
 20
-284281.6996
  0
LWPOLYLINE
  5
57A
330
1F
100
AcDbEntity
  8
0
  6
Continuous
 62
     7
100
AcDbPolyline
 90
        2
 70
     0
 43
0.0
 10
7907187.9413
 20
-284281.6996
 10
7907192.5972
 20
-284277.076
  0
LWPOLYLINE
  5
57E
330
1F
100
AcDbEntity
  8
0
  6
Continuous
 62
     7
100
AcDbPolyline
 90
        2
 70
     0
 43
0.0
 10
7907185.3546
 20
-284289.3302
 10
7907185.872
 20
-284288.7159
  0
LWPOLYLINE
  5
582
330
1F
100
AcDbEntity
  8
0
  6
Continuous
 62
     7
100
AcDbPolyline
 90
        2
 70
     0
 43
0.0
 10
7907185.872
 20
-284288.7159
 10
7907191.0453
 20
-284283.4779
  0
LWPOLYLINE
  5
586
330
1F
100
AcDbEntity
  8
0
  6
Continuous
 62
     7
100
AcDbPolyline
 90
        2
 70
     0
 43
0.0
 10
7907191.0453
 20
-284283.4779
 10
7907192.5972
 20
-284282.0876
  0
LWPOLYLINE
  5
58A
330
1F
100
AcDbEntity
  8
0
  6
Continuous
 62
     7
100
AcDbPolyline
 90
        2
 70
     0
 43
0.0
 10
7907185.3546
 20
-284294.3418
 10
7907188.9759
 20
-284290.4942
  0
LWPOLYLINE
  5
58E
330
1F
100
AcDbEntity
  8
0
  6
Continuous
 62
     7
100
AcDbPolyline
 90
        2
 70
     0
 43
0.0
 10
7907188.9759
 20
-284290.4942
 10
7907192.5972
 20
-284287.0992
  0
LWPOLYLINE
  5
592
330
1F
100
AcDbEntity
  8
0
  6
Continuous
 62
     7
100
AcDbPolyline
 90
        2
 70
     0
 43
0.0
 10
7907185.3546
 20
-284299.3534
 10
7907187.424
 20
-284297.5105
  0
LWPOLYLINE
  5
596
330
1F
100
AcDbEntity
  8
0
  6
Continuous
 62
     7
100
AcDbPolyline
 90
        2
 70
     0
 43
0.0
 10
7907187.424
 20
-284297.5105
 10
7907192.5972
 20
-284292.2725
  0
LWPOLYLINE
  5
59A
330
1F
100
AcDbEntity
  8
0
  6
Continuous
 62
     7
100
AcDbPolyline
 90
        2
 70
     0
 43
0.0
 10
7907192.5972
 20
-284292.2725
 10
7907192.5972
 20
-284292.1108
  0
LWPOLYLINE
  5
59E
330
1F
100
AcDbEntity
  8
0
  6
Continuous
 62
     7
100
AcDbPolyline
 90
        2
 70
     0
 43
0.0
 10
7907185.3546
 20
-284304.9794
 10
7907190.5279
 20
-284299.9354
  0
LWPOLYLINE
  5
5A2
330
1F
100
AcDbEntity
  8
0
  6
Continuous
 62
     7
100
AcDbPolyline
 90
        2
 70
     0
 43
0.0
 10
7907190.5279
 20
-284299.9354
 10
7907192.5972
 20
-284297.7368
  0
LWPOLYLINE
  5
5A6
330
1F
100
AcDbEntity
  8
0
  6
Continuous
 62
     7
100
AcDbPolyline
 90
        2
 70
     0
 43
0.0
 10
7907185.3546
 20
-284309.991
 10
7907188.4586
 20
-284306.9517
  0
LWPOLYLINE
  5
5AA
330
1F
100
AcDbEntity
  8
0
  6
Continuous
 62
     7
100
AcDbPolyline
 90
        2
 70
     0
 43
0.0
 10
7907188.4586
 20
-284306.9517
 10
7907192.5972
 20
-284302.7484
  0
LWPOLYLINE
  5
5AE
330
1F
100
AcDbEntity
  8
0
  6
Continuous
 62
     7
100
AcDbPolyline
 90
        2
 70
     0
 43
0.0
 10
7907185.3546
 20
-284315.0026
 10
7907186.3893
 20
-284313.968
  0
LWPOLYLINE
  5
5B2
330
1F
100
AcDbEntity
  8
0
  6
Continuous
 62
     7
100
AcDbPolyline
 90
        2
 70
     0
 43
0.0
 10
7907186.3893
 20
-284313.968
 10
7907191.5626
 20
-284308.73
  0
LWPOLYLINE
  5
5B6
330
1F
100
AcDbEntity
  8
0
  6
Continuous
 62
     7
100
AcDbPolyline
 90
        2
 70
     0
 43
0.0
 10
7907191.5626
 20
-284308.73
 10
7907192.5972
 20
-284307.76
  0
LWPOLYLINE
  5
5BA
330
1F
100
AcDbEntity
  8
0
  6
Continuous
 62
     7
100
AcDbPolyline
 90
        2
 70
     0
 43
0.0
 10
7907185.3546
 20
-284320.6286
 10
7907189.4933
 20
-284316.3606
  0
LWPOLYLINE
  5
5BE
330
1F
100
AcDbEntity
  8
0
  6
Continuous
 62
     7
100
AcDbPolyline
 90
        2
 70
     0
 43
0.0
 10
7907189.4933
 20
-284316.3606
 10
7907192.5972
 20
-284313.386
  0
LWPOLYLINE
  5
5C2
330
1F
100
AcDbEntity
  8
0
  6
Continuous
 62
     7
100
AcDbPolyline
 90
        2
 70
     0
 43
0.0
 10
7907185.3546
 20
-284325.6402
 10
7907187.424
 20
-284323.4092
  0
LWPOLYLINE
  5
5C6
330
1F
100
AcDbEntity
  8
0
  6
Continuous
 62
     7
100
AcDbPolyline
 90
        2
 70
     0
 43
0.0
 10
7907187.424
 20
-284323.4092
 10
7907192.5972
 20
-284318.3976
  0
LWPOLYLINE
  5
5CA
330
1F
100
AcDbEntity
  8
0
  6
Continuous
 62
     7
100
AcDbPolyline
 90
        2
 70
     0
 43
0.0
 10
7907185.3546
 20
-284330.6518
 10
7907185.3546
 20
-284330.4255
  0
LWPOLYLINE
  5
5CE
330
1F
100
AcDbEntity
  8
0
  6
Continuous
 62
     7
100
AcDbPolyline
 90
        2
 70
     0
 43
0.0
 10
7907185.3546
 20
-284330.4255
 10
7907190.5279
 20
-284325.1876
  0
LWPOLYLINE
  5
5D2
330
1F
100
AcDbEntity
  8
0
  6
Continuous
 62
     7
100
AcDbPolyline
 90
        2
 70
     0
 43
0.0
 10
7907190.5279
 20
-284325.1876
 10
7907192.5972
 20
-284323.4092
  0
LWPOLYLINE
  5
5D6
330
1F
100
AcDbEntity
  8
0
  6
Continuous
 62
     7
100
AcDbPolyline
 90
        2
 70
     0
 43
0.0
 10
7907185.3546
 20
-284336.2778
 10
7907188.9759
 20
-284332.8182
  0
LWPOLYLINE
  5
5DA
330
1F
100
AcDbEntity
  8
0
  6
Continuous
 62
     7
100
AcDbPolyline
 90
        2
 70
     0
 43
0.0
 10
7907188.9759
 20
-284332.8182
 10
7907192.5972
 20
-284329.0352
  0
LWPOLYLINE
  5
5DE
330
1F
100
AcDbEntity
  8
0
  6
Continuous
 62
     7
100
AcDbPolyline
 90
        2
 70
     0
 43
0.0
 10
7907185.3546
 20
-284341.2894
 10
7907186.9066
 20
-284339.8344
  0
LWPOLYLINE
  5
5E2
330
1F
100
AcDbEntity
  8
0
  6
Continuous
 62
     7
100
AcDbPolyline
 90
        2
 70
     0
 43
0.0
 10
7907186.9066
 20
-284339.8344
 10
7907192.0799
 20
-284334.5965
  0
LWPOLYLINE
  5
5E6
330
1F
100
AcDbEntity
  8
0
  6
Continuous
 62
     7
100
AcDbPolyline
 90
        2
 70
     0
 43
0.0
 10
7907192.0799
 20
-284334.5965
 10
7907192.5972
 20
-284334.0468
  0
LWPOLYLINE
  5
5EA
330
1F
100
AcDbEntity
  8
0
  6
Continuous
 62
     7
100
AcDbPolyline
 90
        2
 70
     0
 43
0.0
 10
7907185.3546
 20
-284346.301
 10
7907190.0106
 20
-284341.6451
  0
LWPOLYLINE
  5
5EE
330
1F
100
AcDbEntity
  8
0
  6
Continuous
 62
     7
100
AcDbPolyline
 90
        2
 70
     0
 43
0.0
 10
7907190.0106
 20
-284341.6451
 10
7907192.5972
 20
-284339.0584
  0
LWPOLYLINE
  5
5F2
330
1F
100
AcDbEntity
  8
0
  6
Continuous
 62
     7
100
AcDbPolyline
 90
        2
 70
     0
 43
0.0
 10
7907185.3546
 20
-284351.927
 10
7907187.9413
 20
-284349.2757
  0
LWPOLYLINE
  5
5F6
330
1F
100
AcDbEntity
  8
0
  6
Continuous
 62
     7
100
AcDbPolyline
 90
        2
 70
     0
 43
0.0
 10
7907187.9413
 20
-284349.2757
 10
7907192.5972
 20
-284344.7167
  0
LWPOLYLINE
  5
5FA
330
1F
100
AcDbEntity
  8
0
  6
Continuous
 62
     7
100
AcDbPolyline
 90
        2
 70
     0
 43
0.0
 10
7907185.3546
 20
-284356.9386
 10
7907185.872
 20
-284356.2596
  0
LWPOLYLINE
  5
5FE
330
1F
100
AcDbEntity
  8
0
  6
Continuous
 62
     7
100
AcDbPolyline
 90
        2
 70
     0
 43
0.0
 10
7907185.872
 20
-284356.2596
 10
7907191.0453
 20
-284351.0217
  0
LWPOLYLINE
  5
602
330
1F
100
AcDbEntity
  8
0
  6
Continuous
 62
     7
100
AcDbPolyline
 90
        2
 70
     0
 43
0.0
 10
7907191.0453
 20
-284351.0217
 10
7907192.5972
 20
-284349.696
  0
LWPOLYLINE
  5
606
330
1F
100
AcDbEntity
  8
0
  6
Continuous
 62
     7
100
AcDbPolyline
 90
        2
 70
     0
 43
0.0
 10
7907185.3546
 20
-284361.9502
 10
7907189.4933
 20
-284358.0703
  0
LWPOLYLINE
  5
60A
330
1F
100
AcDbEntity
  8
0
  6
Continuous
 62
     7
100
AcDbPolyline
 90
        2
 70
     0
 43
0.0
 10
7907189.4933
 20
-284358.0703
 10
7907192.5972
 20
-284354.7076
  0
LWPOLYLINE
  5
60E
330
1F
100
AcDbEntity
  8
0
  6
Continuous
 62
     7
100
AcDbPolyline
 90
        2
 70
     0
 43
0.0
 10
7907195.1839
 20
-284139.0138
 10
7907304.8576
 20
-284139.0138
  0
LWPOLYLINE
  5
612
330
1F
100
AcDbEntity
  8
0
  6
Continuous
 62
     7
100
AcDbPolyline
 90
        2
 70
     0
 43
0.0
 10
7907195.1839
 20
-284063.0311
 10
7907304.8576
 20
-284063.0311
  0
LWPOLYLINE
  5
616
330
1F
100
AcDbEntity
  8
0
  6
Continuous
 62
     7
100
AcDbPolyline
 90
        2
 70
     0
 43
0.0
 10
7907304.8576
 20
-284063.0311
 10
7907304.8576
 20
-284139.0138
  0
LWPOLYLINE
  5
61A
330
1F
100
AcDbEntity
  8
0
  6
Continuous
 62
     7
100
AcDbPolyline
 90
        2
 70
     0
 43
0.0
 10
7907315.2042
 20
-284063.0311
 10
7907315.2042
 20
-284139.0138
  0
LWPOLYLINE
  5
61E
330
1F
100
AcDbEntity
  8
0
  6
Continuous
 62
     7
100
AcDbPolyline
 90
        2
 70
     0
 43
0.0
 10
7907544.8982
 20
-284063.0311
 10
7907544.8982
 20
-284139.0138
  0
LWPOLYLINE
  5
622
330
1F
100
AcDbEntity
  8
0
  6
Continuous
 62
     7
100
AcDbPolyline
 90
        2
 70
     0
 43
0.0
 10
7907554.7275
 20
-284063.0311
 10
7907554.7275
 20
-284139.0138
  0
LWPOLYLINE
  5
626
330
1F
100
AcDbEntity
  8
0
  6
Continuous
 62
     7
100
AcDbPolyline
 90
        2
 70
     0
 43
0.0
 10
7907182.768
 20
-284063.0311
 10
7907073.0943
 20
-284063.0311
  0
LWPOLYLINE
  5
62A
330
1F
100
AcDbEntity
  8
0
  6
Continuous
 62
     7
100
AcDbPolyline
 90
        2
 70
     0
 43
0.0
 10
7907062.7477
 20
-284139.0138
 10
7907062.7477
 20
-284063.0311
  0
LWPOLYLINE
  5
62E
330
1F
100
AcDbEntity
  8
0
  6
Continuous
 62
     7
100
AcDbPolyline
 90
        2
 70
     0
 43
0.0
 10
7907182.768
 20
-284139.0138
 10
7907073.0943
 20
-284139.0138
  0
LWPOLYLINE
  5
632
330
1F
100
AcDbEntity
  8
0
  6
Continuous
 62
     7
100
AcDbPolyline
 90
        2
 70
     0
 43
0.0
 10
7907073.0943
 20
-284139.0138
 10
7907073.0943
 20
-284063.0311
  0
LWPOLYLINE
  5
636
330
1F
100
AcDbEntity
  8
0
  6
Continuous
 62
     7
100
AcDbPolyline
 90
        2
 70
     0
 43
0.0
 10
7906830.9844
 20
-284139.0138
 10
7906833.0537
 20
-284139.0138
  0
LWPOLYLINE
  5
63A
330
1F
100
AcDbEntity
  8
0
  6
Continuous
 62
     7
100
AcDbPolyline
 90
        2
 70
     0
 43
0.0
 10
7906770.9742
 20
-284139.0138
 10
7906822.7071
 20
-284139.0138
  0
LWPOLYLINE
  5
63E
330
1F
100
AcDbEntity
  8
0
  6
Continuous
 62
     7
100
AcDbPolyline
 90
        2
 70
     0
 43
0.0
 10
7907062.7477
 20
-284139.0138
 10
7906833.0537
 20
-284139.0138
  0
LWPOLYLINE
  5
642
330
1F
100
AcDbEntity
  8
0
  6
Continuous
 62
     7
100
AcDbPolyline
 90
        2
 70
     0
 43
0.0
 10
7906822.7071
 20
-284139.0138
 10
7906822.7071
 20
-284063.0311
  0
LWPOLYLINE
  5
646
330
1F
100
AcDbEntity
  8
0
  6
Continuous
 62
     7
100
AcDbPolyline
 90
        2
 70
     0
 43
0.0
 10
7906822.7071
 20
-284063.0311
 10
7906770.9742
 20
-284063.0311
  0
LWPOLYLINE
  5
64A
330
1F
100
AcDbEntity
  8
0
  6
Continuous
 62
     7
100
AcDbPolyline
 90
        2
 70
     0
 43
0.0
 10
7906833.0537
 20
-284139.0138
 10
7906833.0537
 20
-284063.0311
  0
LWPOLYLINE
  5
64E
330
1F
100
AcDbEntity
  8
0
  6
Continuous
 62
     7
100
AcDbPolyline
 90
        2
 70
     0
 43
0.0
 10
7906833.0537
 20
-284063.0311
 10
7907062.7477
 20
-284063.0311
  0
LWPOLYLINE
  5
652
330
1F
100
AcDbEntity
  8
0
  6
Continuous
 62
     7
100
AcDbPolyline
 90
        2
 70
     0
 43
0.0
 10
7907545.4156
 20
-284234.946
 10
7907315.2042
 20
-284234.946
  0
LWPOLYLINE
  5
656
330
1F
100
AcDbEntity
  8
0
  6
Continuous
 62
     7
100
AcDbPolyline
 90
        2
 70
     0
 43
0.0
 10
7907598.1831
 20
-284234.946
 10
7907555.2448
 20
-284234.946
  0
LWPOLYLINE
  5
65A
330
1F
100
AcDbEntity
  8
0
  6
Continuous
 62
     7
100
AcDbPolyline
 90
        2
 70
     0
 43
0.0
 10
7907598.1831
 20
-284139.0138
 10
7907554.7275
 20
-284139.0138
  0
LWPOLYLINE
  5
65E
330
1F
100
AcDbEntity
  8
0
  6
Continuous
 62
     7
100
AcDbPolyline
 90
        2
 70
     0
 43
0.0
 10
7907544.8982
 20
-284139.0138
 10
7907315.2042
 20
-284139.0138
  0
LWPOLYLINE
  5
662
330
1F
100
AcDbEntity
  8
0
  6
Continuous
 62
     7
100
AcDbPolyline
 90
        2
 70
     0
 43
0.0
 10
7907598.1831
 20
-284063.0311
 10
7907554.7275
 20
-284063.0311
  0
LWPOLYLINE
  5
666
330
1F
100
AcDbEntity
  8
0
  6
Continuous
 62
     7
100
AcDbPolyline
 90
        2
 70
     0
 43
0.0
 10
7907544.8982
 20
-284063.0311
 10
7907315.2042
 20
-284063.0311
  0
LWPOLYLINE
  5
66A
330
1F
100
AcDbEntity
  8
0
  6
Continuous
 62
     7
100
AcDbPolyline
 90
        2
 70
     0
 43
0.0
 10
7907598.1831
 20
-284310.961
 10
7907555.2448
 20
-284310.961
  0
LWPOLYLINE
  5
66E
330
1F
100
AcDbEntity
  8
0
  6
Continuous
 62
     7
100
AcDbPolyline
 90
        2
 70
     0
 43
0.0
 10
7907545.4156
 20
-284310.961
 10
7907315.2042
 20
-284310.961
  0
LWPOLYLINE
  5
672
330
1F
100
AcDbEntity
  8
0
  6
Continuous
 62
     7
100
AcDbPolyline
 90
        2
 70
     0
 43
0.0
 10
7906833.0537
 20
-284234.946
 10
7906833.0537
 20
-284310.961
  0
LWPOLYLINE
  5
676
330
1F
100
AcDbEntity
  8
0
  6
Continuous
 62
     7
100
AcDbPolyline
 90
        2
 70
     0
 43
0.0
 10
7906833.0537
 20
-284310.961
 10
7907063.265
 20
-284310.961
  0
LWPOLYLINE
  5
67A
330
1F
100
AcDbEntity
  8
0
  6
Continuous
 62
     7
100
AcDbPolyline
 90
        2
 70
     0
 43
0.0
 10
7906577.4932
 20
-284957.0401
 10
7906807.1872
 20
-284957.0401
  0
LWPOLYLINE
  5
67E
330
1F
100
AcDbEntity
  8
0
  6
Continuous
 62
     7
100
AcDbPolyline
 90
        4
 70
     0
 43
0.0
 10
7906564.0426
 20
-285067.0372
 10
7906334.3486
 20
-285067.0372
 10
7906334.3486
 20
-284957.0401
 10
7906564.0426
 20
-284957.0401
  0
LWPOLYLINE
  5
684
330
1F
100
AcDbEntity
  8
0
  6
Continuous
 62
     7
100
AcDbPolyline
 90
        3
 70
     0
 43
0.0
 10
7906807.1872
 20
-284957.0401
 10
7906807.1872
 20
-285067.0372
 10
7906577.4932
 20
-285067.0372
  0
LWPOLYLINE
  5
689
330
1F
100
AcDbEntity
  8
0
  6
Continuous
 62
     7
100
AcDbPolyline
 90
        2
 70
     0
 43
0.0
 10
7906564.0426
 20
-284992.1215
 10
7906564.0426
 20
-284957.0401
  0
LWPOLYLINE
  5
68D
330
1F
100
AcDbEntity
  8
0
  6
Continuous
 62
     7
100
AcDbPolyline
 90
        2
 70
     0
 43
0.0
 10
7906577.4932
 20
-284992.1215
 10
7906577.4932
 20
-284957.0401
  0
LWPOLYLINE
  5
691
330
1F
100
AcDbEntity
  8
0
  6
Continuous
 62
     7
100
AcDbPolyline
 90
        2
 70
     0
 43
0.0
 10
7906577.4932
 20
-284997.2625
 10
7906577.4932
 20
-285019.8309
  0
LWPOLYLINE
  5
695
330
1F
100
AcDbEntity
  8
0
  6
Continuous
 62
     7
100
AcDbPolyline
 90
        2
 70
     0
 43
0.0
 10
7906564.0426
 20
-284997.2625
 10
7906564.0426
 20
-285019.8309
  0
LWPOLYLINE
  5
699
330
1F
100
AcDbEntity
  8
0
  6
Continuous
 62
     7
100
AcDbPolyline
 90
        2
 70
     0
 43
0.0
 10
7906564.0426
 20
-285024.9396
 10
7906564.0426
 20
-285067.0372
  0
LWPOLYLINE
  5
69D
330
1F
100
AcDbEntity
  8
0
  6
Continuous
 62
     7
100
AcDbPolyline
 90
        2
 70
     0
 43
0.0
 10
7906577.4932
 20
-285024.9396
 10
7906577.4932
 20
-285067.0372
  0
LWPOLYLINE
  5
6A1
330
1F
100
AcDbEntity
  8
0
  6
Continuous
 62
     7
100
AcDbPolyline
 90
       37
 70
     0
 43
0.0
 10
7906324.002
 20
-285065.1619
 10
7906324.5194
 20
-285064.9679
 10
7906324.002
 20
-285064.7415
 10
7906324.5194
 20
-285064.5799
 10
7906325.0367
 20
-285064.3859
 10
7906325.0367
 20
-285064.1919
 10
7906325.554
 20
-285064.0302
 10
7906325.554
 20
-285063.8362
 10
7906326.0714
 20
-285063.6746
 10
7906326.0714
 20
-285063.5452
 10
7906326.5887
 20
-285063.3836
 10
7906326.5887
 20
-285063.2542
 10
7906327.106
 20
-285063.1572
 10
7906328.1407
 20
-285063.0602
 10
7906328.1407
 20
-285062.9632
 10
7906328.658
 20
-285062.8986
 10
7906329.1753
 20
-285062.8662
 10
7906329.1753
 20
-285062.8339
 10
7906329.6927
 20
-285062.8339
 10
7906330.21
 20
-285062.8339
 10
7906330.21
 20
-285062.8662
 10
7906330.7273
 20
-285062.8986
 10
7906331.2446
 20
-285062.9632
 10
7906331.2446
 20
-285063.0602
 10
7906331.2446
 20
-285063.1572
 10
7906331.762
 20
-285063.2542
 10
7906331.762
 20
-285063.3836
 10
7906332.2793
 20
-285063.5452
 10
7906332.2793
 20
-285063.6746
 10
7906332.7966
 20
-285063.8362
 10
7906332.7966
 20
-285064.0302
 10
7906333.314
 20
-285064.1919
 10
7906333.314
 20
-285064.3859
 10
7906333.8313
 20
-285064.5799
 10
7906333.8313
 20
-285064.7739
 10
7906334.3486
 20
-285064.9679
 10
7906334.3486
 20
-285065.1619
  0
LWPOLYLINE
  5
6C8
330
1F
100
AcDbEntity
  8
0
  6
Continuous
 62
     7
100
AcDbPolyline
 90
       37
 70
     0
 43
0.0
 10
7906807.1872
 20
-285065.1619
 10
7906807.7046
 20
-285064.9679
 10
7906807.1872
 20
-285064.7415
 10
7906807.7046
 20
-285064.5799
 10
7906808.2219
 20
-285064.3859
 10
7906808.2219
 20
-285064.1919
 10
7906808.7392
 20
-285064.0302
 10
7906808.7392
 20
-285063.8362
 10
7906809.2565
 20
-285063.6746
 10
7906809.2565
 20
-285063.5452
 10
7906809.7739
 20
-285063.3836
 10
7906809.7739
 20
-285063.2542
 10
7906810.2912
 20
-285063.1572
 10
7906811.3259
 20
-285063.0602
 10
7906811.3259
 20
-285062.9632
 10
7906811.8432
 20
-285062.8986
 10
7906812.3605
 20
-285062.8662
 10
7906812.3605
 20
-285062.8339
 10
7906812.8778
 20
-285062.8339
 10
7906813.3952
 20
-285062.8339
 10
7906813.3952
 20
-285062.8662
 10
7906813.9125
 20
-285062.8986
 10
7906814.4298
 20
-285062.9632
 10
7906814.4298
 20
-285063.0602
 10
7906814.4298
 20
-285063.1572
 10
7906814.9472
 20
-285063.2542
 10
7906814.9472
 20
-285063.3836
 10
7906815.4645
 20
-285063.5452
 10
7906815.4645
 20
-285063.6746
 10
7906815.9818
 20
-285063.8362
 10
7906815.9818
 20
-285064.0302
 10
7906816.4991
 20
-285064.1919
 10
7906816.4991
 20
-285064.3859
 10
7906817.0165
 20
-285064.5799
 10
7906817.0165
 20
-285064.7739
 10
7906817.5338
 20
-285064.9679
 10
7906817.5338
 20
-285065.1619
  0
LWPOLYLINE
  5
6EF
330
1F
100
AcDbEntity
  8
0
  6
Continuous
 62
     7
100
AcDbPolyline
 90
        2
 70
     0
 43
0.0
 10
7906324.002
 20
-284958.1395
 10
7906334.3486
 20
-284958.1395
  0
LWPOLYLINE
  5
6F3
330
1F
100
AcDbEntity
  8
0
  6
Continuous
 62
     7
100
AcDbPolyline
 90
        2
 70
     0
 43
0.0
 10
7906807.1872
 20
-284958.1395
 10
7906817.5338
 20
-284958.1395
  0
LWPOLYLINE
  5
6F7
330
1F
100
AcDbEntity
  8
0
  6
Continuous
 62
     7
100
AcDbPolyline
 90
        3
 70
     0
 43
0.0
 10
7906324.002
 20
-284957.0401
 10
7906324.002
 20
-285067.0372
 10
7906154.3182
 20
-285067.0372
  0
LWPOLYLINE
  5
6FC
330
1F
100
AcDbEntity
  8
0
  6
Continuous
 62
     7
100
AcDbPolyline
 90
        2
 70
     0
 43
0.0
 10
7906154.3182
 20
-284957.0401
 10
7906324.002
 20
-284957.0401
  0
LWPOLYLINE
  5
700
330
1F
100
AcDbEntity
  8
0
  6
Continuous
 62
     7
100
AcDbPolyline
 90
        4
 70
     0
 43
0.0
 10
7906981.0097
 20
-285067.0372
 10
7906817.5338
 20
-285067.0372
 10
7906817.5338
 20
-284957.0401
 10
7906981.0097
 20
-284957.0401
  0
LWPOLYLINE
  5
706
330
1F
100
AcDbEntity
  8
0
  6
Continuous
 62
     7
100
AcDbPolyline
 90
        2
 70
     0
 43
0.0
 10
7907525.7571
 20
-284779.467
 10
7907938.0682
 20
-284779.467
  0
LWPOLYLINE
  5
70A
330
1F
100
AcDbEntity
  8
0
  6
Continuous
 62
     7
100
AcDbPolyline
 90
        2
 70
     0
 43
0.0
 10
7908354.0006
 20
-284779.467
 10
7907950.4841
 20
-284779.467
  0
LWPOLYLINE
  5
70E
330
1F
100
AcDbEntity
  8
0
  6
Continuous
 62
     7
100
AcDbPolyline
 90
        2
 70
     0
 43
0.0
 10
7907950.4841
 20
-284941.4879
 10
7908060.6751
 20
-284941.4879
  0
LWPOLYLINE
  5
712
330
1F
100
AcDbEntity
  8
0
  6
Continuous
 62
     7
100
AcDbPolyline
 90
        2
 70
     0
 43
0.0
 10
7908354.0006
 20
-284941.4879
 10
7908070.5044
 20
-284941.4879
  0
LWPOLYLINE
  5
716
330
1F
100
AcDbEntity
  8
0
  6
Continuous
 62
     7
100
AcDbPolyline
 90
        2
 70
     0
 43
0.0
 10
7907950.4841
 20
-284865.4729
 10
7908060.6751
 20
-284865.4729
  0
LWPOLYLINE
  5
71A
330
1F
100
AcDbEntity
  8
0
  6
Continuous
 62
     7
100
AcDbPolyline
 90
        2
 70
     0
 43
0.0
 10
7908060.6751
 20
-284865.4729
 10
7908060.6751
 20
-284941.4879
  0
LWPOLYLINE
  5
71E
330
1F
100
AcDbEntity
  8
0
  6
Continuous
 62
     7
100
AcDbPolyline
 90
        2
 70
     0
 43
0.0
 10
7908354.0006
 20
-284865.4729
 10
7908070.5044
 20
-284865.4729
  0
LWPOLYLINE
  5
722
330
1F
100
AcDbEntity
  8
0
  6
Continuous
 62
     7
100
AcDbPolyline
 90
        2
 70
     0
 43
0.0
 10
7908070.5044
 20
-284865.4729
 10
7908070.5044
 20
-284941.4879
  0
LWPOLYLINE
  5
726
330
1F
100
AcDbEntity
  8
0
  6
Continuous
 62
     7
100
AcDbPolyline
 90
        2
 70
     0
 43
0.0
 10
7908300.7157
 20
-284865.4729
 10
7908300.7157
 20
-284941.4879
  0
LWPOLYLINE
  5
72A
330
1F
100
AcDbEntity
  8
0
  6
Continuous
 62
     7
100
AcDbPolyline
 90
        2
 70
     0
 43
0.0
 10
7908310.545
 20
-284865.4729
 10
7908310.545
 20
-284941.4879
  0
LWPOLYLINE
  5
72E
330
1F
100
AcDbEntity
  8
0
  6
Continuous
 62
     7
100
AcDbPolyline
 90
        2
 70
     0
 43
0.0
 10
7907938.0682
 20
-284865.4729
 10
7907827.3598
 20
-284865.4729
  0
LWPOLYLINE
  5
732
330
1F
100
AcDbEntity
  8
0
  6
Continuous
 62
     7
100
AcDbPolyline
 90
        2
 70
     0
 43
0.0
 10
7907818.0479
 20
-284941.4879
 10
7907818.0479
 20
-284865.4729
  0
LWPOLYLINE
  5
736
330
1F
100
AcDbEntity
  8
0
  6
Continuous
 62
     7
100
AcDbPolyline
 90
        2
 70
     0
 43
0.0
 10
7907938.0682
 20
-284941.4879
 10
7907827.3598
 20
-284941.4879
  0
LWPOLYLINE
  5
73A
330
1F
100
AcDbEntity
  8
0
  6
Continuous
 62
     7
100
AcDbPolyline
 90
        2
 70
     0
 43
0.0
 10
7907827.3598
 20
-284941.4879
 10
7907827.3598
 20
-284865.4729
  0
LWPOLYLINE
  5
73E
330
1F
100
AcDbEntity
  8
0
  6
Continuous
 62
     7
100
AcDbPolyline
 90
        2
 70
     0
 43
0.0
 10
7907525.7571
 20
-284855.482
 10
7907698.0276
 20
-284855.482
  0
LWPOLYLINE
  5
742
330
1F
100
AcDbEntity
  8
0
  6
Continuous
 62
     7
100
AcDbPolyline
 90
        2
 70
     0
 43
0.0
 10
7907698.0276
 20
-284855.482
 10
7907698.0276
 20
-284779.467
  0
LWPOLYLINE
  5
746
330
1F
100
AcDbEntity
  8
0
  6
Continuous
 62
     7
100
AcDbPolyline
 90
        2
 70
     0
 43
0.0
 10
7907938.0682
 20
-284855.482
 10
7907707.3395
 20
-284855.482
  0
LWPOLYLINE
  5
74A
330
1F
100
AcDbEntity
  8
0
  6
Continuous
 62
     7
100
AcDbPolyline
 90
        2
 70
     0
 43
0.0
 10
7907707.3395
 20
-284855.482
 10
7907707.3395
 20
-284779.467
  0
LWPOLYLINE
  5
74E
330
1F
100
AcDbEntity
  8
0
  6
Continuous
 62
     7
100
AcDbPolyline
 90
        2
 70
     0
 43
0.0
 10
7907585.2499
 20
-284941.4879
 10
7907587.3192
 20
-284941.4879
  0
LWPOLYLINE
  5
752
330
1F
100
AcDbEntity
  8
0
  6
Continuous
 62
     7
100
AcDbPolyline
 90
        2
 70
     0
 43
0.0
 10
7907525.7571
 20
-284941.4879
 10
7907578.0073
 20
-284941.4879
  0
LWPOLYLINE
  5
756
330
1F
100
AcDbEntity
  8
0
  6
Continuous
 62
     7
100
AcDbPolyline
 90
        2
 70
     0
 43
0.0
 10
7907818.0479
 20
-284941.4879
 10
7907587.3192
 20
-284941.4879
  0
LWPOLYLINE
  5
75A
330
1F
100
AcDbEntity
  8
0
  6
Continuous
 62
     7
100
AcDbPolyline
 90
        2
 70
     0
 43
0.0
 10
7907578.0073
 20
-284941.4879
 10
7907578.0073
 20
-284865.4729
  0
LWPOLYLINE
  5
75E
330
1F
100
AcDbEntity
  8
0
  6
Continuous
 62
     7
100
AcDbPolyline
 90
        2
 70
     0
 43
0.0
 10
7907578.0073
 20
-284865.4729
 10
7907525.7571
 20
-284865.4729
  0
LWPOLYLINE
  5
762
330
1F
100
AcDbEntity
  8
0
  6
Continuous
 62
     7
100
AcDbPolyline
 90
        2
 70
     0
 43
0.0
 10
7907587.3192
 20
-284941.4879
 10
7907587.3192
 20
-284865.4729
  0
LWPOLYLINE
  5
766
330
1F
100
AcDbEntity
  8
0
  6
Continuous
 62
     7
100
AcDbPolyline
 90
        2
 70
     0
 43
0.0
 10
7907587.3192
 20
-284865.4729
 10
7907818.0479
 20
-284865.4729
  0
LWPOLYLINE
  5
76A
330
1F
100
AcDbEntity
  8
0
  6
Continuous
 62
     7
100
AcDbPolyline
 90
        2
 70
     0
 43
0.0
 10
7907950.4841
 20
-284855.482
 10
7908180.6954
 20
-284855.482
  0
LWPOLYLINE
  5
76E
330
1F
100
AcDbEntity
  8
0
  6
Continuous
 62
     7
100
AcDbPolyline
 90
        2
 70
     0
 43
0.0
 10
7908180.6954
 20
-284855.482
 10
7908180.6954
 20
-284779.467
  0
LWPOLYLINE
  5
772
330
1F
100
AcDbEntity
  8
0
  6
Continuous
 62
     7
100
AcDbPolyline
 90
        2
 70
     0
 43
0.0
 10
7908354.0006
 20
-284855.482
 10
7908190.5247
 20
-284855.482
  0
LWPOLYLINE
  5
776
330
1F
100
AcDbEntity
  8
0
  6
Continuous
 62
     7
100
AcDbPolyline
 90
        2
 70
     0
 43
0.0
 10
7908190.5247
 20
-284855.482
 10
7908190.5247
 20
-284779.467
  0
LWPOLYLINE
  5
77A
330
1F
100
AcDbEntity
  8
0
  6
Continuous
 62
     7
100
AcDbPolyline
 90
        2
 70
     0
 43
0.0
 10
7907525.7571
 20
-284951.4789
 10
7907698.0276
 20
-284951.4789
  0
LWPOLYLINE
  5
77E
330
1F
100
AcDbEntity
  8
0
  6
Continuous
 62
     7
100
AcDbPolyline
 90
        2
 70
     0
 43
0.0
 10
7907938.0682
 20
-284951.4789
 10
7907707.3395
 20
-284951.4789
  0
LWPOLYLINE
  5
782
330
1F
100
AcDbEntity
  8
0
  6
Continuous
 62
     7
100
AcDbPolyline
 90
        2
 70
     0
 43
0.0
 10
7907950.4841
 20
-284951.4789
 10
7908180.6954
 20
-284951.4789
  0
LWPOLYLINE
  5
786
330
1F
100
AcDbEntity
  8
0
  6
Continuous
 62
     7
100
AcDbPolyline
 90
        2
 70
     0
 43
0.0
 10
7908354.0006
 20
-284951.4789
 10
7908190.5247
 20
-284951.4789
  0
LWPOLYLINE
  5
78A
330
1F
100
AcDbEntity
  8
0
  6
Continuous
 62
     7
100
AcDbPolyline
 90
        2
 70
     0
 43
0.0
 10
7907938.0682
 20
-284779.467
 10
7907938.0682
 20
-284995.4841
  0
LWPOLYLINE
  5
78E
330
1F
100
AcDbEntity
  8
0
  6
Continuous
 62
     7
100
AcDbPolyline
 90
        2
 70
     0
 43
0.0
 10
7907950.4841
 20
-284779.467
 10
7907950.4841
 20
-284995.4841
  0
LWPOLYLINE
  5
792
330
1F
100
AcDbEntity
  8
0
  6
Continuous
 62
     7
100
AcDbPolyline
 90
        2
 70
     0
 43
0.0
 10
7907698.0276
 20
-284951.4789
 10
7907698.0276
 20
-284995.4841
  0
LWPOLYLINE
  5
796
330
1F
100
AcDbEntity
  8
0
  6
Continuous
 62
     7
100
AcDbPolyline
 90
        2
 70
     0
 43
0.0
 10
7907707.3395
 20
-284951.4789
 10
7907707.3395
 20
-284995.4841
  0
LWPOLYLINE
  5
79A
330
1F
100
AcDbEntity
  8
0
  6
Continuous
 62
     7
100
AcDbPolyline
 90
        2
 70
     0
 43
0.0
 10
7908180.6954
 20
-284951.4789
 10
7908180.6954
 20
-284995.4841
  0
LWPOLYLINE
  5
79E
330
1F
100
AcDbEntity
  8
0
  6
Continuous
 62
     7
100
AcDbPolyline
 90
        2
 70
     0
 43
0.0
 10
7908190.5247
 20
-284951.4789
 10
7908190.5247
 20
-284995.4841
  0
LWPOLYLINE
  5
7A2
330
1F
100
AcDbEntity
  8
0
  6
Continuous
 62
     7
100
AcDbPolyline
 90
        2
 70
     0
 43
0.0
 10
7907940.6548
 20
-284887.4594
 10
7907941.1722
 20
-284887.4594
  0
LWPOLYLINE
  5
7A6
330
1F
100
AcDbEntity
  8
0
  6
Continuous
 62
     7
100
AcDbPolyline
 90
        2
 70
     0
 43
0.0
 10
7907944.2761
 20
-284887.4594
 10
7907944.7935
 20
-284887.4594
  0
LWPOLYLINE
  5
7AA
330
1F
100
AcDbEntity
  8
0
  6
Continuous
 62
     7
100
AcDbPolyline
 90
        2
 70
     0
 43
0.0
 10
7907947.8974
 20
-284887.4594
 10
7907948.4148
 20
-284887.4594
  0
LWPOLYLINE
  5
7AE
330
1F
100
AcDbEntity
  8
0
  6
Continuous
 62
     7
100
AcDbPolyline
 90
        2
 70
     0
 43
0.0
 10
7907939.1028
 20
-284885.6164
 10
7907939.6202
 20
-284885.6164
  0
LWPOLYLINE
  5
7B2
330
1F
100
AcDbEntity
  8
0
  6
Continuous
 62
     7
100
AcDbPolyline
 90
        2
 70
     0
 43
0.0
 10
7907942.7241
 20
-284885.6164
 10
7907943.2415
 20
-284885.6164
  0
LWPOLYLINE
  5
7B6
330
1F
100
AcDbEntity
  8
0
  6
Continuous
 62
     7
100
AcDbPolyline
 90
        2
 70
     0
 43
0.0
 10
7907946.3454
 20
-284885.6164
 10
7907946.8628
 20
-284885.6164
  0
LWPOLYLINE
  5
7BA
330
1F
100
AcDbEntity
  8
0
  6
Continuous
 62
     7
100
AcDbPolyline
 90
        2
 70
     0
 43
0.0
 10
7907949.9667
 20
-284885.6164
 10
7907950.4841
 20
-284885.6164
  0
LWPOLYLINE
  5
7BE
330
1F
100
AcDbEntity
  8
0
  6
Continuous
 62
     7
100
AcDbPolyline
 90
        2
 70
     0
 43
0.0
 10
7907941.1722
 20
-284883.7734
 10
7907941.6895
 20
-284883.7734
  0
LWPOLYLINE
  5
7C2
330
1F
100
AcDbEntity
  8
0
  6
Continuous
 62
     7
100
AcDbPolyline
 90
        2
 70
     0
 43
0.0
 10
7907944.7935
 20
-284883.7734
 10
7907945.3108
 20
-284883.7734
  0
LWPOLYLINE
  5
7C6
330
1F
100
AcDbEntity
  8
0
  6
Continuous
 62
     7
100
AcDbPolyline
 90
        2
 70
     0
 43
0.0
 10
7907948.4148
 20
-284883.7734
 10
7907948.9321
 20
-284883.7734
  0
LWPOLYLINE
  5
7CA
330
1F
100
AcDbEntity
  8
0
  6
Continuous
 62
     7
100
AcDbPolyline
 90
        2
 70
     0
 43
0.0
 10
7907939.6202
 20
-284881.9304
 10
7907940.1375
 20
-284881.9304
  0
LWPOLYLINE
  5
7CE
330
1F
100
AcDbEntity
  8
0
  6
Continuous
 62
     7
100
AcDbPolyline
 90
        2
 70
     0
 43
0.0
 10
7907943.2415
 20
-284881.9304
 10
7907943.7588
 20
-284881.9304
  0
LWPOLYLINE
  5
7D2
330
1F
100
AcDbEntity
  8
0
  6
Continuous
 62
     7
100
AcDbPolyline
 90
        2
 70
     0
 43
0.0
 10
7907946.8628
 20
-284881.9304
 10
7907947.3801
 20
-284881.9304
  0
LWPOLYLINE
  5
7D6
330
1F
100
AcDbEntity
  8
0
  6
Continuous
 62
     7
100
AcDbPolyline
 90
        2
 70
     0
 43
0.0
 10
7907950.4841
 20
-284881.9304
 10
7907950.4841
 20
-284881.9304
  0
LWPOLYLINE
  5
7DA
330
1F
100
AcDbEntity
  8
0
  6
Continuous
 62
     7
100
AcDbPolyline
 90
        2
 70
     0
 43
0.0
 10
7907938.0682
 20
-284880.0875
 10
7907938.0682
 20
-284880.0875
  0
LWPOLYLINE
  5
7DE
330
1F
100
AcDbEntity
  8
0
  6
Continuous
 62
     7
100
AcDbPolyline
 90
        2
 70
     0
 43
0.0
 10
7907941.1722
 20
-284880.0875
 10
7907941.6895
 20
-284880.0875
  0
LWPOLYLINE
  5
7E2
330
1F
100
AcDbEntity
  8
0
  6
Continuous
 62
     7
100
AcDbPolyline
 90
        2
 70
     0
 43
0.0
 10
7907944.7935
 20
-284880.0875
 10
7907945.3108
 20
-284880.0875
  0
LWPOLYLINE
  5
7E6
330
1F
100
AcDbEntity
  8
0
  6
Continuous
 62
     7
100
AcDbPolyline
 90
        2
 70
     0
 43
0.0
 10
7907948.4148
 20
-284880.0875
 10
7907948.9321
 20
-284880.0875
  0
LWPOLYLINE
  5
7EA
330
1F
100
AcDbEntity
  8
0
  6
Continuous
 62
     7
100
AcDbPolyline
 90
        2
 70
     0
 43
0.0
 10
7907939.6202
 20
-284878.2445
 10
7907940.1375
 20
-284878.2445
  0
LWPOLYLINE
  5
7EE
330
1F
100
AcDbEntity
  8
0
  6
Continuous
 62
     7
100
AcDbPolyline
 90
        2
 70
     0
 43
0.0
 10
7907943.2415
 20
-284878.2445
 10
7907943.7588
 20
-284878.2445
  0
LWPOLYLINE
  5
7F2
330
1F
100
AcDbEntity
  8
0
  6
Continuous
 62
     7
100
AcDbPolyline
 90
        2
 70
     0
 43
0.0
 10
7907946.8628
 20
-284878.2445
 10
7907947.3801
 20
-284878.2445
  0
LWPOLYLINE
  5
7F6
330
1F
100
AcDbEntity
  8
0
  6
Continuous
 62
     7
100
AcDbPolyline
 90
        2
 70
     0
 43
0.0
 10
7907938.0682
 20
-284876.4015
 10
7907938.5855
 20
-284876.4015
  0
LWPOLYLINE
  5
7FA
330
1F
100
AcDbEntity
  8
0
  6
Continuous
 62
     7
100
AcDbPolyline
 90
        2
 70
     0
 43
0.0
 10
7907941.6895
 20
-284876.4015
 10
7907942.2068
 20
-284876.4015
  0
LWPOLYLINE
  5
7FE
330
1F
100
AcDbEntity
  8
0
  6
Continuous
 62
     7
100
AcDbPolyline
 90
        2
 70
     0
 43
0.0
 10
7907945.3108
 20
-284876.4015
 10
7907945.8281
 20
-284876.4015
  0
LWPOLYLINE
  5
802
330
1F
100
AcDbEntity
  8
0
  6
Continuous
 62
     7
100
AcDbPolyline
 90
        2
 70
     0
 43
0.0
 10
7907948.9321
 20
-284876.4015
 10
7907949.4494
 20
-284876.4015
  0
LWPOLYLINE
  5
806
330
1F
100
AcDbEntity
  8
0
  6
Continuous
 62
     7
100
AcDbPolyline
 90
        2
 70
     0
 43
0.0
 10
7907940.1375
 20
-284874.5585
 10
7907940.6548
 20
-284874.5585
  0
LWPOLYLINE
  5
80A
330
1F
100
AcDbEntity
  8
0
  6
Continuous
 62
     7
100
AcDbPolyline
 90
        2
 70
     0
 43
0.0
 10
7907943.7588
 20
-284874.5585
 10
7907944.2761
 20
-284874.5585
  0
LWPOLYLINE
  5
80E
330
1F
100
AcDbEntity
  8
0
  6
Continuous
 62
     7
100
AcDbPolyline
 90
        2
 70
     0
 43
0.0
 10
7907947.3801
 20
-284874.5585
 10
7907947.8974
 20
-284874.5585
  0
LWPOLYLINE
  5
812
330
1F
100
AcDbEntity
  8
0
  6
Continuous
 62
     7
100
AcDbPolyline
 90
        2
 70
     0
 43
0.0
 10
7907938.5855
 20
-284872.7155
 10
7907939.1028
 20
-284872.7155
  0
LWPOLYLINE
  5
816
330
1F
100
AcDbEntity
  8
0
  6
Continuous
 62
     7
100
AcDbPolyline
 90
        2
 70
     0
 43
0.0
 10
7907942.2068
 20
-284872.7155
 10
7907942.7241
 20
-284872.7155
  0
LWPOLYLINE
  5
81A
330
1F
100
AcDbEntity
  8
0
  6
Continuous
 62
     7
100
AcDbPolyline
 90
        2
 70
     0
 43
0.0
 10
7907945.8281
 20
-284872.7155
 10
7907946.3454
 20
-284872.7155
  0
LWPOLYLINE
  5
81E
330
1F
100
AcDbEntity
  8
0
  6
Continuous
 62
     7
100
AcDbPolyline
 90
        2
 70
     0
 43
0.0
 10
7907949.4494
 20
-284872.7155
 10
7907949.9667
 20
-284872.7155
  0
LWPOLYLINE
  5
822
330
1F
100
AcDbEntity
  8
0
  6
Continuous
 62
     7
100
AcDbPolyline
 90
        2
 70
     0
 43
0.0
 10
7907940.6548
 20
-284870.8725
 10
7907941.1722
 20
-284870.8725
  0
LWPOLYLINE
  5
826
330
1F
100
AcDbEntity
  8
0
  6
Continuous
 62
     7
100
AcDbPolyline
 90
        2
 70
     0
 43
0.0
 10
7907944.2761
 20
-284870.8725
 10
7907944.7935
 20
-284870.8725
  0
LWPOLYLINE
  5
82A
330
1F
100
AcDbEntity
  8
0
  6
Continuous
 62
     7
100
AcDbPolyline
 90
        2
 70
     0
 43
0.0
 10
7907947.8974
 20
-284870.8725
 10
7907948.4148
 20
-284870.8725
  0
LWPOLYLINE
  5
82E
330
1F
100
AcDbEntity
  8
0
  6
Continuous
 62
     7
100
AcDbPolyline
 90
        2
 70
     0
 43
0.0
 10
7907939.1028
 20
-284869.0296
 10
7907939.6202
 20
-284869.0296
  0
LWPOLYLINE
  5
832
330
1F
100
AcDbEntity
  8
0
  6
Continuous
 62
     7
100
AcDbPolyline
 90
        2
 70
     0
 43
0.0
 10
7907942.7241
 20
-284869.0296
 10
7907943.2415
 20
-284869.0296
  0
LWPOLYLINE
  5
836
330
1F
100
AcDbEntity
  8
0
  6
Continuous
 62
     7
100
AcDbPolyline
 90
        2
 70
     0
 43
0.0
 10
7907946.3454
 20
-284869.0296
 10
7907946.8628
 20
-284869.0296
  0
LWPOLYLINE
  5
83A
330
1F
100
AcDbEntity
  8
0
  6
Continuous
 62
     7
100
AcDbPolyline
 90
        2
 70
     0
 43
0.0
 10
7907949.9667
 20
-284869.0296
 10
7907950.4841
 20
-284869.0296
  0
LWPOLYLINE
  5
83E
330
1F
100
AcDbEntity
  8
0
  6
Continuous
 62
     7
100
AcDbPolyline
 90
        2
 70
     0
 43
0.0
 10
7907941.1722
 20
-284867.1866
 10
7907941.6895
 20
-284867.1866
  0
LWPOLYLINE
  5
842
330
1F
100
AcDbEntity
  8
0
  6
Continuous
 62
     7
100
AcDbPolyline
 90
        2
 70
     0
 43
0.0
 10
7907944.7935
 20
-284867.1866
 10
7907945.3108
 20
-284867.1866
  0
LWPOLYLINE
  5
846
330
1F
100
AcDbEntity
  8
0
  6
Continuous
 62
     7
100
AcDbPolyline
 90
        2
 70
     0
 43
0.0
 10
7907948.4148
 20
-284867.1866
 10
7907948.9321
 20
-284867.1866
  0
LWPOLYLINE
  5
84A
330
1F
100
AcDbEntity
  8
0
  6
Continuous
 62
     7
100
AcDbPolyline
 90
        2
 70
     0
 43
0.0
 10
7907939.6202
 20
-284865.3436
 10
7907940.1375
 20
-284865.3436
  0
LWPOLYLINE
  5
84E
330
1F
100
AcDbEntity
  8
0
  6
Continuous
 62
     7
100
AcDbPolyline
 90
        2
 70
     0
 43
0.0
 10
7907943.2415
 20
-284865.3436
 10
7907943.7588
 20
-284865.3436
  0
LWPOLYLINE
  5
852
330
1F
100
AcDbEntity
  8
0
  6
Continuous
 62
     7
100
AcDbPolyline
 90
        2
 70
     0
 43
0.0
 10
7907946.8628
 20
-284865.3436
 10
7907947.3801
 20
-284865.3436
  0
LWPOLYLINE
  5
856
330
1F
100
AcDbEntity
  8
0
  6
Continuous
 62
     7
100
AcDbPolyline
 90
        2
 70
     0
 43
0.0
 10
7907938.0682
 20
-284863.5006
 10
7907938.0682
 20
-284863.5006
  0
LWPOLYLINE
  5
85A
330
1F
100
AcDbEntity
  8
0
  6
Continuous
 62
     7
100
AcDbPolyline
 90
        2
 70
     0
 43
0.0
 10
7907941.1722
 20
-284863.5006
 10
7907941.6895
 20
-284863.5006
  0
LWPOLYLINE
  5
85E
330
1F
100
AcDbEntity
  8
0
  6
Continuous
 62
     7
100
AcDbPolyline
 90
        2
 70
     0
 43
0.0
 10
7907944.7935
 20
-284863.5006
 10
7907945.3108
 20
-284863.5006
  0
LWPOLYLINE
  5
862
330
1F
100
AcDbEntity
  8
0
  6
Continuous
 62
     7
100
AcDbPolyline
 90
        2
 70
     0
 43
0.0
 10
7907948.4148
 20
-284863.5006
 10
7907948.9321
 20
-284863.5006
  0
LWPOLYLINE
  5
866
330
1F
100
AcDbEntity
  8
0
  6
Continuous
 62
     7
100
AcDbPolyline
 90
        2
 70
     0
 43
0.0
 10
7907940.1375
 20
-284861.6576
 10
7907940.6548
 20
-284861.6576
  0
LWPOLYLINE
  5
86A
330
1F
100
AcDbEntity
  8
0
  6
Continuous
 62
     7
100
AcDbPolyline
 90
        2
 70
     0
 43
0.0
 10
7907943.7588
 20
-284861.6576
 10
7907944.2761
 20
-284861.6576
  0
LWPOLYLINE
  5
86E
330
1F
100
AcDbEntity
  8
0
  6
Continuous
 62
     7
100
AcDbPolyline
 90
        2
 70
     0
 43
0.0
 10
7907947.3801
 20
-284861.6576
 10
7907947.8974
 20
-284861.6576
  0
LWPOLYLINE
  5
872
330
1F
100
AcDbEntity
  8
0
  6
Continuous
 62
     7
100
AcDbPolyline
 90
        2
 70
     0
 43
0.0
 10
7907938.0682
 20
-284859.8146
 10
7907938.5855
 20
-284859.8146
  0
LWPOLYLINE
  5
876
330
1F
100
AcDbEntity
  8
0
  6
Continuous
 62
     7
100
AcDbPolyline
 90
        2
 70
     0
 43
0.0
 10
7907941.6895
 20
-284859.8146
 10
7907942.2068
 20
-284859.8146
  0
LWPOLYLINE
  5
87A
330
1F
100
AcDbEntity
  8
0
  6
Continuous
 62
     7
100
AcDbPolyline
 90
        2
 70
     0
 43
0.0
 10
7907945.3108
 20
-284859.8146
 10
7907945.8281
 20
-284859.8146
  0
LWPOLYLINE
  5
87E
330
1F
100
AcDbEntity
  8
0
  6
Continuous
 62
     7
100
AcDbPolyline
 90
        2
 70
     0
 43
0.0
 10
7907948.9321
 20
-284859.8146
 10
7907949.4494
 20
-284859.8146
  0
LWPOLYLINE
  5
882
330
1F
100
AcDbEntity
  8
0
  6
Continuous
 62
     7
100
AcDbPolyline
 90
        2
 70
     0
 43
0.0
 10
7907940.1375
 20
-284857.9717
 10
7907940.6548
 20
-284857.9717
  0
LWPOLYLINE
  5
886
330
1F
100
AcDbEntity
  8
0
  6
Continuous
 62
     7
100
AcDbPolyline
 90
        2
 70
     0
 43
0.0
 10
7907943.7588
 20
-284857.9717
 10
7907944.2761
 20
-284857.9717
  0
LWPOLYLINE
  5
88A
330
1F
100
AcDbEntity
  8
0
  6
Continuous
 62
     7
100
AcDbPolyline
 90
        2
 70
     0
 43
0.0
 10
7907947.3801
 20
-284857.9717
 10
7907947.8974
 20
-284857.9717
  0
LWPOLYLINE
  5
88E
330
1F
100
AcDbEntity
  8
0
  6
Continuous
 62
     7
100
AcDbPolyline
 90
        2
 70
     0
 43
0.0
 10
7907938.5855
 20
-284856.1287
 10
7907939.1028
 20
-284856.1287
  0
LWPOLYLINE
  5
892
330
1F
100
AcDbEntity
  8
0
  6
Continuous
 62
     7
100
AcDbPolyline
 90
        2
 70
     0
 43
0.0
 10
7907942.2068
 20
-284856.1287
 10
7907942.7241
 20
-284856.1287
  0
LWPOLYLINE
  5
896
330
1F
100
AcDbEntity
  8
0
  6
Continuous
 62
     7
100
AcDbPolyline
 90
        2
 70
     0
 43
0.0
 10
7907945.8281
 20
-284856.1287
 10
7907946.3454
 20
-284856.1287
  0
LWPOLYLINE
  5
89A
330
1F
100
AcDbEntity
  8
0
  6
Continuous
 62
     7
100
AcDbPolyline
 90
        2
 70
     0
 43
0.0
 10
7907949.4494
 20
-284856.1287
 10
7907949.9667
 20
-284856.1287
  0
LWPOLYLINE
  5
89E
330
1F
100
AcDbEntity
  8
0
  6
Continuous
 62
     7
100
AcDbPolyline
 90
        2
 70
     0
 43
0.0
 10
7907940.6548
 20
-284854.2857
 10
7907941.1722
 20
-284854.2857
  0
LWPOLYLINE
  5
8A2
330
1F
100
AcDbEntity
  8
0
  6
Continuous
 62
     7
100
AcDbPolyline
 90
        2
 70
     0
 43
0.0
 10
7907944.2761
 20
-284854.2857
 10
7907944.7935
 20
-284854.2857
  0
LWPOLYLINE
  5
8A6
330
1F
100
AcDbEntity
  8
0
  6
Continuous
 62
     7
100
AcDbPolyline
 90
        2
 70
     0
 43
0.0
 10
7907947.8974
 20
-284854.2857
 10
7907948.4148
 20
-284854.2857
  0
LWPOLYLINE
  5
8AA
330
1F
100
AcDbEntity
  8
0
  6
Continuous
 62
     7
100
AcDbPolyline
 90
        2
 70
     0
 43
0.0
 10
7907939.1028
 20
-284852.4427
 10
7907939.6202
 20
-284852.4427
  0
LWPOLYLINE
  5
8AE
330
1F
100
AcDbEntity
  8
0
  6
Continuous
 62
     7
100
AcDbPolyline
 90
        2
 70
     0
 43
0.0
 10
7907942.7241
 20
-284852.4427
 10
7907943.2415
 20
-284852.4427
  0
LWPOLYLINE
  5
8B2
330
1F
100
AcDbEntity
  8
0
  6
Continuous
 62
     7
100
AcDbPolyline
 90
        2
 70
     0
 43
0.0
 10
7907946.3454
 20
-284852.4427
 10
7907946.8628
 20
-284852.4427
  0
LWPOLYLINE
  5
8B6
330
1F
100
AcDbEntity
  8
0
  6
Continuous
 62
     7
100
AcDbPolyline
 90
        2
 70
     0
 43
0.0
 10
7907949.9667
 20
-284852.4427
 10
7907950.4841
 20
-284852.4427
  0
LWPOLYLINE
  5
8BA
330
1F
100
AcDbEntity
  8
0
  6
Continuous
 62
     7
100
AcDbPolyline
 90
        2
 70
     0
 43
0.0
 10
7907941.1722
 20
-284850.5997
 10
7907941.6895
 20
-284850.5997
  0
LWPOLYLINE
  5
8BE
330
1F
100
AcDbEntity
  8
0
  6
Continuous
 62
     7
100
AcDbPolyline
 90
        2
 70
     0
 43
0.0
 10
7907944.7935
 20
-284850.5997
 10
7907945.3108
 20
-284850.5997
  0
LWPOLYLINE
  5
8C2
330
1F
100
AcDbEntity
  8
0
  6
Continuous
 62
     7
100
AcDbPolyline
 90
        2
 70
     0
 43
0.0
 10
7907948.4148
 20
-284850.5997
 10
7907948.9321
 20
-284850.5997
  0
LWPOLYLINE
  5
8C6
330
1F
100
AcDbEntity
  8
0
  6
Continuous
 62
     7
100
AcDbPolyline
 90
        2
 70
     0
 43
0.0
 10
7907939.6202
 20
-284848.7567
 10
7907940.1375
 20
-284848.7567
  0
LWPOLYLINE
  5
8CA
330
1F
100
AcDbEntity
  8
0
  6
Continuous
 62
     7
100
AcDbPolyline
 90
        2
 70
     0
 43
0.0
 10
7907943.2415
 20
-284848.7567
 10
7907943.7588
 20
-284848.7567
  0
LWPOLYLINE
  5
8CE
330
1F
100
AcDbEntity
  8
0
  6
Continuous
 62
     7
100
AcDbPolyline
 90
        2
 70
     0
 43
0.0
 10
7907946.8628
 20
-284848.7567
 10
7907947.3801
 20
-284848.7567
  0
LWPOLYLINE
  5
8D2
330
1F
100
AcDbEntity
  8
0
  6
Continuous
 62
     7
100
AcDbPolyline
 90
        2
 70
     0
 43
0.0
 10
7907938.0682
 20
-284846.9137
 10
7907938.5855
 20
-284846.9137
  0
LWPOLYLINE
  5
8D6
330
1F
100
AcDbEntity
  8
0
  6
Continuous
 62
     7
100
AcDbPolyline
 90
        2
 70
     0
 43
0.0
 10
7907941.6895
 20
-284846.9137
 10
7907942.2068
 20
-284846.9137
  0
LWPOLYLINE
  5
8DA
330
1F
100
AcDbEntity
  8
0
  6
Continuous
 62
     7
100
AcDbPolyline
 90
        2
 70
     0
 43
0.0
 10
7907945.3108
 20
-284846.9137
 10
7907945.8281
 20
-284846.9137
  0
LWPOLYLINE
  5
8DE
330
1F
100
AcDbEntity
  8
0
  6
Continuous
 62
     7
100
AcDbPolyline
 90
        2
 70
     0
 43
0.0
 10
7907948.9321
 20
-284846.9137
 10
7907949.4494
 20
-284846.9137
  0
LWPOLYLINE
  5
8E2
330
1F
100
AcDbEntity
  8
0
  6
Continuous
 62
     7
100
AcDbPolyline
 90
        2
 70
     0
 43
0.0
 10
7907940.1375
 20
-284845.0708
 10
7907940.6548
 20
-284845.0708
  0
LWPOLYLINE
  5
8E6
330
1F
100
AcDbEntity
  8
0
  6
Continuous
 62
     7
100
AcDbPolyline
 90
        2
 70
     0
 43
0.0
 10
7907943.7588
 20
-284845.0708
 10
7907944.2761
 20
-284845.0708
  0
LWPOLYLINE
  5
8EA
330
1F
100
AcDbEntity
  8
0
  6
Continuous
 62
     7
100
AcDbPolyline
 90
        2
 70
     0
 43
0.0
 10
7907947.3801
 20
-284845.0708
 10
7907947.8974
 20
-284845.0708
  0
LWPOLYLINE
  5
8EE
330
1F
100
AcDbEntity
  8
0
  6
Continuous
 62
     7
100
AcDbPolyline
 90
        2
 70
     0
 43
0.0
 10
7907938.5855
 20
-284843.2278
 10
7907939.1028
 20
-284843.2278
  0
LWPOLYLINE
  5
8F2
330
1F
100
AcDbEntity
  8
0
  6
Continuous
 62
     7
100
AcDbPolyline
 90
        2
 70
     0
 43
0.0
 10
7907942.2068
 20
-284843.2278
 10
7907942.7241
 20
-284843.2278
  0
LWPOLYLINE
  5
8F6
330
1F
100
AcDbEntity
  8
0
  6
Continuous
 62
     7
100
AcDbPolyline
 90
        2
 70
     0
 43
0.0
 10
7907945.8281
 20
-284843.2278
 10
7907946.3454
 20
-284843.2278
  0
LWPOLYLINE
  5
8FA
330
1F
100
AcDbEntity
  8
0
  6
Continuous
 62
     7
100
AcDbPolyline
 90
        2
 70
     0
 43
0.0
 10
7907949.4494
 20
-284843.2278
 10
7907949.9667
 20
-284843.2278
  0
LWPOLYLINE
  5
8FE
330
1F
100
AcDbEntity
  8
0
  6
Continuous
 62
     7
100
AcDbPolyline
 90
        2
 70
     0
 43
0.0
 10
7907940.6548
 20
-284841.3848
 10
7907941.1722
 20
-284841.3848
  0
LWPOLYLINE
  5
902
330
1F
100
AcDbEntity
  8
0
  6
Continuous
 62
     7
100
AcDbPolyline
 90
        2
 70
     0
 43
0.0
 10
7907944.2761
 20
-284841.3848
 10
7907944.7935
 20
-284841.3848
  0
LWPOLYLINE
  5
906
330
1F
100
AcDbEntity
  8
0
  6
Continuous
 62
     7
100
AcDbPolyline
 90
        2
 70
     0
 43
0.0
 10
7907947.8974
 20
-284841.3848
 10
7907948.4148
 20
-284841.3848
  0
LWPOLYLINE
  5
90A
330
1F
100
AcDbEntity
  8
0
  6
Continuous
 62
     7
100
AcDbPolyline
 90
        2
 70
     0
 43
0.0
 10
7907939.1028
 20
-284839.5418
 10
7907939.6202
 20
-284839.5418
  0
LWPOLYLINE
  5
90E
330
1F
100
AcDbEntity
  8
0
  6
Continuous
 62
     7
100
AcDbPolyline
 90
        2
 70
     0
 43
0.0
 10
7907942.7241
 20
-284839.5418
 10
7907943.2415
 20
-284839.5418
  0
LWPOLYLINE
  5
912
330
1F
100
AcDbEntity
  8
0
  6
Continuous
 62
     7
100
AcDbPolyline
 90
        2
 70
     0
 43
0.0
 10
7907946.3454
 20
-284839.5418
 10
7907946.8628
 20
-284839.5418
  0
LWPOLYLINE
  5
916
330
1F
100
AcDbEntity
  8
0
  6
Continuous
 62
     7
100
AcDbPolyline
 90
        2
 70
     0
 43
0.0
 10
7907949.9667
 20
-284839.5418
 10
7907950.4841
 20
-284839.5418
  0
LWPOLYLINE
  5
91A
330
1F
100
AcDbEntity
  8
0
  6
Continuous
 62
     7
100
AcDbPolyline
 90
        2
 70
     0
 43
0.0
 10
7907941.1722
 20
-284837.6988
 10
7907941.6895
 20
-284837.6988
  0
LWPOLYLINE
  5
91E
330
1F
100
AcDbEntity
  8
0
  6
Continuous
 62
     7
100
AcDbPolyline
 90
        2
 70
     0
 43
0.0
 10
7907944.7935
 20
-284837.6988
 10
7907945.3108
 20
-284837.6988
  0
LWPOLYLINE
  5
922
330
1F
100
AcDbEntity
  8
0
  6
Continuous
 62
     7
100
AcDbPolyline
 90
        2
 70
     0
 43
0.0
 10
7907948.4148
 20
-284837.6988
 10
7907948.9321
 20
-284837.6988
  0
LWPOLYLINE
  5
926
330
1F
100
AcDbEntity
  8
0
  6
Continuous
 62
     7
100
AcDbPolyline
 90
        2
 70
     0
 43
0.0
 10
7907939.6202
 20
-284835.8558
 10
7907940.1375
 20
-284835.8558
  0
LWPOLYLINE
  5
92A
330
1F
100
AcDbEntity
  8
0
  6
Continuous
 62
     7
100
AcDbPolyline
 90
        2
 70
     0
 43
0.0
 10
7907943.2415
 20
-284835.8558
 10
7907943.7588
 20
-284835.8558
  0
LWPOLYLINE
  5
92E
330
1F
100
AcDbEntity
  8
0
  6
Continuous
 62
     7
100
AcDbPolyline
 90
        2
 70
     0
 43
0.0
 10
7907946.8628
 20
-284835.8558
 10
7907947.3801
 20
-284835.8558
  0
LWPOLYLINE
  5
932
330
1F
100
AcDbEntity
  8
0
  6
Continuous
 62
     7
100
AcDbPolyline
 90
        2
 70
     0
 43
0.0
 10
7907938.0682
 20
-284834.0129
 10
7907938.0682
 20
-284834.0129
  0
LWPOLYLINE
  5
936
330
1F
100
AcDbEntity
  8
0
  6
Continuous
 62
     7
100
AcDbPolyline
 90
        2
 70
     0
 43
0.0
 10
7907941.1722
 20
-284834.0129
 10
7907941.6895
 20
-284834.0129
  0
LWPOLYLINE
  5
93A
330
1F
100
AcDbEntity
  8
0
  6
Continuous
 62
     7
100
AcDbPolyline
 90
        2
 70
     0
 43
0.0
 10
7907944.7935
 20
-284834.0129
 10
7907945.3108
 20
-284834.0129
  0
LWPOLYLINE
  5
93E
330
1F
100
AcDbEntity
  8
0
  6
Continuous
 62
     7
100
AcDbPolyline
 90
        2
 70
     0
 43
0.0
 10
7907948.4148
 20
-284834.0129
 10
7907948.9321
 20
-284834.0129
  0
LWPOLYLINE
  5
942
330
1F
100
AcDbEntity
  8
0
  6
Continuous
 62
     7
100
AcDbPolyline
 90
        2
 70
     0
 43
0.0
 10
7907939.6202
 20
-284832.1699
 10
7907940.1375
 20
-284832.1699
  0
LWPOLYLINE
  5
946
330
1F
100
AcDbEntity
  8
0
  6
Continuous
 62
     7
100
AcDbPolyline
 90
        2
 70
     0
 43
0.0
 10
7907943.2415
 20
-284832.1699
 10
7907943.7588
 20
-284832.1699
  0
LWPOLYLINE
  5
94A
330
1F
100
AcDbEntity
  8
0
  6
Continuous
 62
     7
100
AcDbPolyline
 90
        2
 70
     0
 43
0.0
 10
7907946.8628
 20
-284832.1699
 10
7907947.3801
 20
-284832.1699
  0
LWPOLYLINE
  5
94E
330
1F
100
AcDbEntity
  8
0
  6
Continuous
 62
     7
100
AcDbPolyline
 90
        2
 70
     0
 43
0.0
 10
7907938.0682
 20
-284830.3269
 10
7907938.5855
 20
-284830.3269
  0
LWPOLYLINE
  5
952
330
1F
100
AcDbEntity
  8
0
  6
Continuous
 62
     7
100
AcDbPolyline
 90
        2
 70
     0
 43
0.0
 10
7907941.6895
 20
-284830.3269
 10
7907942.2068
 20
-284830.3269
  0
LWPOLYLINE
  5
956
330
1F
100
AcDbEntity
  8
0
  6
Continuous
 62
     7
100
AcDbPolyline
 90
        2
 70
     0
 43
0.0
 10
7907945.3108
 20
-284830.3269
 10
7907945.8281
 20
-284830.3269
  0
LWPOLYLINE
  5
95A
330
1F
100
AcDbEntity
  8
0
  6
Continuous
 62
     7
100
AcDbPolyline
 90
        2
 70
     0
 43
0.0
 10
7907948.9321
 20
-284830.3269
 10
7907949.4494
 20
-284830.3269
  0
LWPOLYLINE
  5
95E
330
1F
100
AcDbEntity
  8
0
  6
Continuous
 62
     7
100
AcDbPolyline
 90
        2
 70
     0
 43
0.0
 10
7907940.1375
 20
-284828.4839
 10
7907940.6548
 20
-284828.4839
  0
LWPOLYLINE
  5
962
330
1F
100
AcDbEntity
  8
0
  6
Continuous
 62
     7
100
AcDbPolyline
 90
        2
 70
     0
 43
0.0
 10
7907943.7588
 20
-284828.4839
 10
7907944.2761
 20
-284828.4839
  0
LWPOLYLINE
  5
966
330
1F
100
AcDbEntity
  8
0
  6
Continuous
 62
     7
100
AcDbPolyline
 90
        2
 70
     0
 43
0.0
 10
7907947.3801
 20
-284828.4839
 10
7907947.8974
 20
-284828.4839
  0
LWPOLYLINE
  5
96A
330
1F
100
AcDbEntity
  8
0
  6
Continuous
 62
     7
100
AcDbPolyline
 90
        2
 70
     0
 43
0.0
 10
7907938.5855
 20
-284826.6409
 10
7907939.1028
 20
-284826.6409
  0
LWPOLYLINE
  5
96E
330
1F
100
AcDbEntity
  8
0
  6
Continuous
 62
     7
100
AcDbPolyline
 90
        2
 70
     0
 43
0.0
 10
7907942.2068
 20
-284826.6409
 10
7907942.7241
 20
-284826.6409
  0
LWPOLYLINE
  5
972
330
1F
100
AcDbEntity
  8
0
  6
Continuous
 62
     7
100
AcDbPolyline
 90
        2
 70
     0
 43
0.0
 10
7907945.8281
 20
-284826.6409
 10
7907946.3454
 20
-284826.6409
  0
LWPOLYLINE
  5
976
330
1F
100
AcDbEntity
  8
0
  6
Continuous
 62
     7
100
AcDbPolyline
 90
        2
 70
     0
 43
0.0
 10
7907949.4494
 20
-284826.6409
 10
7907949.9667
 20
-284826.6409
  0
LWPOLYLINE
  5
97A
330
1F
100
AcDbEntity
  8
0
  6
Continuous
 62
     7
100
AcDbPolyline
 90
        2
 70
     0
 43
0.0
 10
7907940.6548
 20
-284824.7979
 10
7907941.1722
 20
-284824.7979
  0
LWPOLYLINE
  5
97E
330
1F
100
AcDbEntity
  8
0
  6
Continuous
 62
     7
100
AcDbPolyline
 90
        2
 70
     0
 43
0.0
 10
7907944.2761
 20
-284824.7979
 10
7907944.7935
 20
-284824.7979
  0
LWPOLYLINE
  5
982
330
1F
100
AcDbEntity
  8
0
  6
Continuous
 62
     7
100
AcDbPolyline
 90
        2
 70
     0
 43
0.0
 10
7907947.8974
 20
-284824.7979
 10
7907948.4148
 20
-284824.7979
  0
LWPOLYLINE
  5
986
330
1F
100
AcDbEntity
  8
0
  6
Continuous
 62
     7
100
AcDbPolyline
 90
        2
 70
     0
 43
0.0
 10
7907939.1028
 20
-284822.955
 10
7907939.6202
 20
-284822.955
  0
LWPOLYLINE
  5
98A
330
1F
100
AcDbEntity
  8
0
  6
Continuous
 62
     7
100
AcDbPolyline
 90
        2
 70
     0
 43
0.0
 10
7907942.7241
 20
-284822.955
 10
7907943.2415
 20
-284822.955
  0
LWPOLYLINE
  5
98E
330
1F
100
AcDbEntity
  8
0
  6
Continuous
 62
     7
100
AcDbPolyline
 90
        2
 70
     0
 43
0.0
 10
7907946.3454
 20
-284822.955
 10
7907946.8628
 20
-284822.955
  0
LWPOLYLINE
  5
992
330
1F
100
AcDbEntity
  8
0
  6
Continuous
 62
     7
100
AcDbPolyline
 90
        2
 70
     0
 43
0.0
 10
7907949.9667
 20
-284822.955
 10
7907950.4841
 20
-284822.955
  0
LWPOLYLINE
  5
996
330
1F
100
AcDbEntity
  8
0
  6
Continuous
 62
     7
100
AcDbPolyline
 90
        2
 70
     0
 43
0.0
 10
7907941.1722
 20
-284821.112
 10
7907941.6895
 20
-284821.112
  0
LWPOLYLINE
  5
99A
330
1F
100
AcDbEntity
  8
0
  6
Continuous
 62
     7
100
AcDbPolyline
 90
        2
 70
     0
 43
0.0
 10
7907944.7935
 20
-284821.112
 10
7907945.3108
 20
-284821.112
  0
LWPOLYLINE
  5
99E
330
1F
100
AcDbEntity
  8
0
  6
Continuous
 62
     7
100
AcDbPolyline
 90
        2
 70
     0
 43
0.0
 10
7907948.4148
 20
-284821.112
 10
7907948.9321
 20
-284821.112
  0
LWPOLYLINE
  5
9A2
330
1F
100
AcDbEntity
  8
0
  6
Continuous
 62
     7
100
AcDbPolyline
 90
        2
 70
     0
 43
0.0
 10
7907939.6202
 20
-284819.269
 10
7907940.1375
 20
-284819.269
  0
LWPOLYLINE
  5
9A6
330
1F
100
AcDbEntity
  8
0
  6
Continuous
 62
     7
100
AcDbPolyline
 90
        2
 70
     0
 43
0.0
 10
7907943.2415
 20
-284819.269
 10
7907943.7588
 20
-284819.269
  0
LWPOLYLINE
  5
9AA
330
1F
100
AcDbEntity
  8
0
  6
Continuous
 62
     7
100
AcDbPolyline
 90
        2
 70
     0
 43
0.0
 10
7907946.8628
 20
-284819.269
 10
7907947.3801
 20
-284819.269
  0
LWPOLYLINE
  5
9AE
330
1F
100
AcDbEntity
  8
0
  6
Continuous
 62
     7
100
AcDbPolyline
 90
        2
 70
     0
 43
0.0
 10
7907938.0682
 20
-284817.426
 10
7907938.0682
 20
-284817.426
  0
LWPOLYLINE
  5
9B2
330
1F
100
AcDbEntity
  8
0
  6
Continuous
 62
     7
100
AcDbPolyline
 90
        2
 70
     0
 43
0.0
 10
7907941.1722
 20
-284817.426
 10
7907941.6895
 20
-284817.426
  0
LWPOLYLINE
  5
9B6
330
1F
100
AcDbEntity
  8
0
  6
Continuous
 62
     7
100
AcDbPolyline
 90
        2
 70
     0
 43
0.0
 10
7907944.7935
 20
-284817.426
 10
7907945.3108
 20
-284817.426
  0
LWPOLYLINE
  5
9BA
330
1F
100
AcDbEntity
  8
0
  6
Continuous
 62
     7
100
AcDbPolyline
 90
        2
 70
     0
 43
0.0
 10
7907948.4148
 20
-284817.426
 10
7907948.9321
 20
-284817.426
  0
LWPOLYLINE
  5
9BE
330
1F
100
AcDbEntity
  8
0
  6
Continuous
 62
     7
100
AcDbPolyline
 90
        2
 70
     0
 43
0.0
 10
7907940.1375
 20
-284815.583
 10
7907940.6548
 20
-284815.583
  0
LWPOLYLINE
  5
9C2
330
1F
100
AcDbEntity
  8
0
  6
Continuous
 62
     7
100
AcDbPolyline
 90
        2
 70
     0
 43
0.0
 10
7907943.7588
 20
-284815.583
 10
7907944.2761
 20
-284815.583
  0
LWPOLYLINE
  5
9C6
330
1F
100
AcDbEntity
  8
0
  6
Continuous
 62
     7
100
AcDbPolyline
 90
        2
 70
     0
 43
0.0
 10
7907947.3801
 20
-284815.583
 10
7907947.8974
 20
-284815.583
  0
LWPOLYLINE
  5
9CA
330
1F
100
AcDbEntity
  8
0
  6
Continuous
 62
     7
100
AcDbPolyline
 90
        2
 70
     0
 43
0.0
 10
7907938.5855
 20
-284813.74
 10
7907939.1028
 20
-284813.74
  0
LWPOLYLINE
  5
9CE
330
1F
100
AcDbEntity
  8
0
  6
Continuous
 62
     7
100
AcDbPolyline
 90
        2
 70
     0
 43
0.0
 10
7907942.2068
 20
-284813.74
 10
7907942.7241
 20
-284813.74
  0
LWPOLYLINE
  5
9D2
330
1F
100
AcDbEntity
  8
0
  6
Continuous
 62
     7
100
AcDbPolyline
 90
        2
 70
     0
 43
0.0
 10
7907945.8281
 20
-284813.74
 10
7907946.3454
 20
-284813.74
  0
LWPOLYLINE
  5
9D6
330
1F
100
AcDbEntity
  8
0
  6
Continuous
 62
     7
100
AcDbPolyline
 90
        2
 70
     0
 43
0.0
 10
7907949.4494
 20
-284813.74
 10
7907949.9667
 20
-284813.74
  0
LWPOLYLINE
  5
9DA
330
1F
100
AcDbEntity
  8
0
  6
Continuous
 62
     7
100
AcDbPolyline
 90
        2
 70
     0
 43
0.0
 10
7907940.6548
 20
-284811.897
 10
7907941.1722
 20
-284811.897
  0
LWPOLYLINE
  5
9DE
330
1F
100
AcDbEntity
  8
0
  6
Continuous
 62
     7
100
AcDbPolyline
 90
        2
 70
     0
 43
0.0
 10
7907944.2761
 20
-284811.897
 10
7907944.7935
 20
-284811.897
  0
LWPOLYLINE
  5
9E2
330
1F
100
AcDbEntity
  8
0
  6
Continuous
 62
     7
100
AcDbPolyline
 90
        2
 70
     0
 43
0.0
 10
7907947.8974
 20
-284811.897
 10
7907948.4148
 20
-284811.897
  0
LWPOLYLINE
  5
9E6
330
1F
100
AcDbEntity
  8
0
  6
Continuous
 62
     7
100
AcDbPolyline
 90
        2
 70
     0
 43
0.0
 10
7907938.5855
 20
-284810.0541
 10
7907939.1028
 20
-284810.0541
  0
LWPOLYLINE
  5
9EA
330
1F
100
AcDbEntity
  8
0
  6
Continuous
 62
     7
100
AcDbPolyline
 90
        2
 70
     0
 43
0.0
 10
7907942.2068
 20
-284810.0541
 10
7907942.7241
 20
-284810.0541
  0
LWPOLYLINE
  5
9EE
330
1F
100
AcDbEntity
  8
0
  6
Continuous
 62
     7
100
AcDbPolyline
 90
        2
 70
     0
 43
0.0
 10
7907945.8281
 20
-284810.0541
 10
7907946.3454
 20
-284810.0541
  0
LWPOLYLINE
  5
9F2
330
1F
100
AcDbEntity
  8
0
  6
Continuous
 62
     7
100
AcDbPolyline
 90
        2
 70
     0
 43
0.0
 10
7907949.4494
 20
-284810.0541
 10
7907949.9667
 20
-284810.0541
  0
LWPOLYLINE
  5
9F6
330
1F
100
AcDbEntity
  8
0
  6
Continuous
 62
     7
100
AcDbPolyline
 90
        2
 70
     0
 43
0.0
 10
7907940.6548
 20
-284808.2111
 10
7907941.1722
 20
-284808.2111
  0
LWPOLYLINE
  5
9FA
330
1F
100
AcDbEntity
  8
0
  6
Continuous
 62
     7
100
AcDbPolyline
 90
        2
 70
     0
 43
0.0
 10
7907944.2761
 20
-284808.2111
 10
7907944.7935
 20
-284808.2111
  0
LWPOLYLINE
  5
9FE
330
1F
100
AcDbEntity
  8
0
  6
Continuous
 62
     7
100
AcDbPolyline
 90
        2
 70
     0
 43
0.0
 10
7907947.8974
 20
-284808.2111
 10
7907948.4148
 20
-284808.2111
  0
LWPOLYLINE
  5
A02
330
1F
100
AcDbEntity
  8
0
  6
Continuous
 62
     7
100
AcDbPolyline
 90
        2
 70
     0
 43
0.0
 10
7907939.1028
 20
-284806.3681
 10
7907939.6202
 20
-284806.3681
  0
LWPOLYLINE
  5
A06
330
1F
100
AcDbEntity
  8
0
  6
Continuous
 62
     7
100
AcDbPolyline
 90
        2
 70
     0
 43
0.0
 10
7907942.7241
 20
-284806.3681
 10
7907943.2415
 20
-284806.3681
  0
LWPOLYLINE
  5
A0A
330
1F
100
AcDbEntity
  8
0
  6
Continuous
 62
     7
100
AcDbPolyline
 90
        2
 70
     0
 43
0.0
 10
7907946.3454
 20
-284806.3681
 10
7907946.8628
 20
-284806.3681
  0
LWPOLYLINE
  5
A0E
330
1F
100
AcDbEntity
  8
0
  6
Continuous
 62
     7
100
AcDbPolyline
 90
        2
 70
     0
 43
0.0
 10
7907949.9667
 20
-284806.3681
 10
7907950.4841
 20
-284806.3681
  0
LWPOLYLINE
  5
A12
330
1F
100
AcDbEntity
  8
0
  6
Continuous
 62
     7
100
AcDbPolyline
 90
        2
 70
     0
 43
0.0
 10
7907941.1722
 20
-284804.5251
 10
7907941.6895
 20
-284804.5251
  0
LWPOLYLINE
  5
A16
330
1F
100
AcDbEntity
  8
0
  6
Continuous
 62
     7
100
AcDbPolyline
 90
        2
 70
     0
 43
0.0
 10
7907944.7935
 20
-284804.5251
 10
7907945.3108
 20
-284804.5251
  0
LWPOLYLINE
  5
A1A
330
1F
100
AcDbEntity
  8
0
  6
Continuous
 62
     7
100
AcDbPolyline
 90
        2
 70
     0
 43
0.0
 10
7907948.4148
 20
-284804.5251
 10
7907948.9321
 20
-284804.5251
  0
LWPOLYLINE
  5
A1E
330
1F
100
AcDbEntity
  8
0
  6
Continuous
 62
     7
100
AcDbPolyline
 90
        2
 70
     0
 43
0.0
 10
7907939.6202
 20
-284802.6821
 10
7907940.1375
 20
-284802.6821
  0
LWPOLYLINE
  5
A22
330
1F
100
AcDbEntity
  8
0
  6
Continuous
 62
     7
100
AcDbPolyline
 90
        2
 70
     0
 43
0.0
 10
7907943.2415
 20
-284802.6821
 10
7907943.7588
 20
-284802.6821
  0
LWPOLYLINE
  5
A26
330
1F
100
AcDbEntity
  8
0
  6
Continuous
 62
     7
100
AcDbPolyline
 90
        2
 70
     0
 43
0.0
 10
7907946.8628
 20
-284802.6821
 10
7907947.3801
 20
-284802.6821
  0
LWPOLYLINE
  5
A2A
330
1F
100
AcDbEntity
  8
0
  6
Continuous
 62
     7
100
AcDbPolyline
 90
        2
 70
     0
 43
0.0
 10
7907938.0682
 20
-284800.8391
 10
7907938.5855
 20
-284800.8391
  0
LWPOLYLINE
  5
A2E
330
1F
100
AcDbEntity
  8
0
  6
Continuous
 62
     7
100
AcDbPolyline
 90
        2
 70
     0
 43
0.0
 10
7907941.6895
 20
-284800.8391
 10
7907942.2068
 20
-284800.8391
  0
LWPOLYLINE
  5
A32
330
1F
100
AcDbEntity
  8
0
  6
Continuous
 62
     7
100
AcDbPolyline
 90
        2
 70
     0
 43
0.0
 10
7907945.3108
 20
-284800.8391
 10
7907945.8281
 20
-284800.8391
  0
LWPOLYLINE
  5
A36
330
1F
100
AcDbEntity
  8
0
  6
Continuous
 62
     7
100
AcDbPolyline
 90
        2
 70
     0
 43
0.0
 10
7907948.9321
 20
-284800.8391
 10
7907949.4494
 20
-284800.8391
  0
LWPOLYLINE
  5
A3A
330
1F
100
AcDbEntity
  8
0
  6
Continuous
 62
     7
100
AcDbPolyline
 90
        2
 70
     0
 43
0.0
 10
7907940.1375
 20
-284798.9962
 10
7907940.6548
 20
-284798.9962
  0
LWPOLYLINE
  5
A3E
330
1F
100
AcDbEntity
  8
0
  6
Continuous
 62
     7
100
AcDbPolyline
 90
        2
 70
     0
 43
0.0
 10
7907943.7588
 20
-284798.9962
 10
7907944.2761
 20
-284798.9962
  0
LWPOLYLINE
  5
A42
330
1F
100
AcDbEntity
  8
0
  6
Continuous
 62
     7
100
AcDbPolyline
 90
        2
 70
     0
 43
0.0
 10
7907947.3801
 20
-284798.9962
 10
7907947.8974
 20
-284798.9962
  0
LWPOLYLINE
  5
A46
330
1F
100
AcDbEntity
  8
0
  6
Continuous
 62
     7
100
AcDbPolyline
 90
        2
 70
     0
 43
0.0
 10
7907938.5855
 20
-284797.1532
 10
7907939.1028
 20
-284797.1532
  0
LWPOLYLINE
  5
A4A
330
1F
100
AcDbEntity
  8
0
  6
Continuous
 62
     7
100
AcDbPolyline
 90
        2
 70
     0
 43
0.0
 10
7907942.2068
 20
-284797.1532
 10
7907942.7241
 20
-284797.1532
  0
LWPOLYLINE
  5
A4E
330
1F
100
AcDbEntity
  8
0
  6
Continuous
 62
     7
100
AcDbPolyline
 90
        2
 70
     0
 43
0.0
 10
7907945.8281
 20
-284797.1532
 10
7907946.3454
 20
-284797.1532
  0
LWPOLYLINE
  5
A52
330
1F
100
AcDbEntity
  8
0
  6
Continuous
 62
     7
100
AcDbPolyline
 90
        2
 70
     0
 43
0.0
 10
7907949.4494
 20
-284797.1532
 10
7907949.9667
 20
-284797.1532
  0
LWPOLYLINE
  5
A56
330
1F
100
AcDbEntity
  8
0
  6
Continuous
 62
     7
100
AcDbPolyline
 90
        2
 70
     0
 43
0.0
 10
7907940.6548
 20
-284795.3102
 10
7907941.1722
 20
-284795.3102
  0
LWPOLYLINE
  5
A5A
330
1F
100
AcDbEntity
  8
0
  6
Continuous
 62
     7
100
AcDbPolyline
 90
        2
 70
     0
 43
0.0
 10
7907944.2761
 20
-284795.3102
 10
7907944.7935
 20
-284795.3102
  0
LWPOLYLINE
  5
A5E
330
1F
100
AcDbEntity
  8
0
  6
Continuous
 62
     7
100
AcDbPolyline
 90
        2
 70
     0
 43
0.0
 10
7907947.8974
 20
-284795.3102
 10
7907948.4148
 20
-284795.3102
  0
LWPOLYLINE
  5
A62
330
1F
100
AcDbEntity
  8
0
  6
Continuous
 62
     7
100
AcDbPolyline
 90
        2
 70
     0
 43
0.0
 10
7907939.1028
 20
-284793.4672
 10
7907939.6202
 20
-284793.4672
  0
LWPOLYLINE
  5
A66
330
1F
100
AcDbEntity
  8
0
  6
Continuous
 62
     7
100
AcDbPolyline
 90
        2
 70
     0
 43
0.0
 10
7907942.7241
 20
-284793.4672
 10
7907943.2415
 20
-284793.4672
  0
LWPOLYLINE
  5
A6A
330
1F
100
AcDbEntity
  8
0
  6
Continuous
 62
     7
100
AcDbPolyline
 90
        2
 70
     0
 43
0.0
 10
7907946.3454
 20
-284793.4672
 10
7907946.8628
 20
-284793.4672
  0
LWPOLYLINE
  5
A6E
330
1F
100
AcDbEntity
  8
0
  6
Continuous
 62
     7
100
AcDbPolyline
 90
        2
 70
     0
 43
0.0
 10
7907949.9667
 20
-284793.4672
 10
7907950.4841
 20
-284793.4672
  0
LWPOLYLINE
  5
A72
330
1F
100
AcDbEntity
  8
0
  6
Continuous
 62
     7
100
AcDbPolyline
 90
        2
 70
     0
 43
0.0
 10
7907941.1722
 20
-284791.6242
 10
7907941.6895
 20
-284791.6242
  0
LWPOLYLINE
  5
A76
330
1F
100
AcDbEntity
  8
0
  6
Continuous
 62
     7
100
AcDbPolyline
 90
        2
 70
     0
 43
0.0
 10
7907944.7935
 20
-284791.6242
 10
7907945.3108
 20
-284791.6242
  0
LWPOLYLINE
  5
A7A
330
1F
100
AcDbEntity
  8
0
  6
Continuous
 62
     7
100
AcDbPolyline
 90
        2
 70
     0
 43
0.0
 10
7907948.4148
 20
-284791.6242
 10
7907948.9321
 20
-284791.6242
  0
LWPOLYLINE
  5
A7E
330
1F
100
AcDbEntity
  8
0
  6
Continuous
 62
     7
100
AcDbPolyline
 90
        2
 70
     0
 43
0.0
 10
7907939.6202
 20
-284789.7812
 10
7907940.1375
 20
-284789.7812
  0
LWPOLYLINE
  5
A82
330
1F
100
AcDbEntity
  8
0
  6
Continuous
 62
     7
100
AcDbPolyline
 90
        2
 70
     0
 43
0.0
 10
7907943.2415
 20
-284789.7812
 10
7907943.7588
 20
-284789.7812
  0
LWPOLYLINE
  5
A86
330
1F
100
AcDbEntity
  8
0
  6
Continuous
 62
     7
100
AcDbPolyline
 90
        2
 70
     0
 43
0.0
 10
7907946.8628
 20
-284789.7812
 10
7907947.3801
 20
-284789.7812
  0
LWPOLYLINE
  5
A8A
330
1F
100
AcDbEntity
  8
0
  6
Continuous
 62
     7
100
AcDbPolyline
 90
        2
 70
     0
 43
0.0
 10
7907938.0682
 20
-284787.9383
 10
7907938.0682
 20
-284787.9383
  0
LWPOLYLINE
  5
A8E
330
1F
100
AcDbEntity
  8
0
  6
Continuous
 62
     7
100
AcDbPolyline
 90
        2
 70
     0
 43
0.0
 10
7907941.1722
 20
-284787.9383
 10
7907941.6895
 20
-284787.9383
  0
LWPOLYLINE
  5
A92
330
1F
100
AcDbEntity
  8
0
  6
Continuous
 62
     7
100
AcDbPolyline
 90
        2
 70
     0
 43
0.0
 10
7907944.7935
 20
-284787.9383
 10
7907945.3108
 20
-284787.9383
  0
LWPOLYLINE
  5
A96
330
1F
100
AcDbEntity
  8
0
  6
Continuous
 62
     7
100
AcDbPolyline
 90
        2
 70
     0
 43
0.0
 10
7907948.4148
 20
-284787.9383
 10
7907948.9321
 20
-284787.9383
  0
LWPOLYLINE
  5
A9A
330
1F
100
AcDbEntity
  8
0
  6
Continuous
 62
     7
100
AcDbPolyline
 90
        2
 70
     0
 43
0.0
 10
7907939.6202
 20
-284786.0953
 10
7907940.1375
 20
-284786.0953
  0
LWPOLYLINE
  5
A9E
330
1F
100
AcDbEntity
  8
0
  6
Continuous
 62
     7
100
AcDbPolyline
 90
        2
 70
     0
 43
0.0
 10
7907943.2415
 20
-284786.0953
 10
7907943.7588
 20
-284786.0953
  0
LWPOLYLINE
  5
AA2
330
1F
100
AcDbEntity
  8
0
  6
Continuous
 62
     7
100
AcDbPolyline
 90
        2
 70
     0
 43
0.0
 10
7907946.8628
 20
-284786.0953
 10
7907947.3801
 20
-284786.0953
  0
LWPOLYLINE
  5
AA6
330
1F
100
AcDbEntity
  8
0
  6
Continuous
 62
     7
100
AcDbPolyline
 90
        2
 70
     0
 43
0.0
 10
7907938.0682
 20
-284784.2523
 10
7907938.5855
 20
-284784.2523
  0
LWPOLYLINE
  5
AAA
330
1F
100
AcDbEntity
  8
0
  6
Continuous
 62
     7
100
AcDbPolyline
 90
        2
 70
     0
 43
0.0
 10
7907941.6895
 20
-284784.2523
 10
7907942.2068
 20
-284784.2523
  0
LWPOLYLINE
  5
AAE
330
1F
100
AcDbEntity
  8
0
  6
Continuous
 62
     7
100
AcDbPolyline
 90
        2
 70
     0
 43
0.0
 10
7907945.3108
 20
-284784.2523
 10
7907945.8281
 20
-284784.2523
  0
LWPOLYLINE
  5
AB2
330
1F
100
AcDbEntity
  8
0
  6
Continuous
 62
     7
100
AcDbPolyline
 90
        2
 70
     0
 43
0.0
 10
7907948.9321
 20
-284784.2523
 10
7907949.4494
 20
-284784.2523
  0
LWPOLYLINE
  5
AB6
330
1F
100
AcDbEntity
  8
0
  6
Continuous
 62
     7
100
AcDbPolyline
 90
        2
 70
     0
 43
0.0
 10
7907940.1375
 20
-284782.4093
 10
7907940.6548
 20
-284782.4093
  0
LWPOLYLINE
  5
ABA
330
1F
100
AcDbEntity
  8
0
  6
Continuous
 62
     7
100
AcDbPolyline
 90
        2
 70
     0
 43
0.0
 10
7907943.7588
 20
-284782.4093
 10
7907944.2761
 20
-284782.4093
  0
LWPOLYLINE
  5
ABE
330
1F
100
AcDbEntity
  8
0
  6
Continuous
 62
     7
100
AcDbPolyline
 90
        2
 70
     0
 43
0.0
 10
7907947.3801
 20
-284782.4093
 10
7907947.8974
 20
-284782.4093
  0
LWPOLYLINE
  5
AC2
330
1F
100
AcDbEntity
  8
0
  6
Continuous
 62
     7
100
AcDbPolyline
 90
        2
 70
     0
 43
0.0
 10
7907938.5855
 20
-284780.5663
 10
7907939.1028
 20
-284780.5663
  0
LWPOLYLINE
  5
AC6
330
1F
100
AcDbEntity
  8
0
  6
Continuous
 62
     7
100
AcDbPolyline
 90
        2
 70
     0
 43
0.0
 10
7907942.2068
 20
-284780.5663
 10
7907942.7241
 20
-284780.5663
  0
LWPOLYLINE
  5
ACA
330
1F
100
AcDbEntity
  8
0
  6
Continuous
 62
     7
100
AcDbPolyline
 90
        2
 70
     0
 43
0.0
 10
7907945.8281
 20
-284780.5663
 10
7907946.3454
 20
-284780.5663
  0
LWPOLYLINE
  5
ACE
330
1F
100
AcDbEntity
  8
0
  6
Continuous
 62
     7
100
AcDbPolyline
 90
        2
 70
     0
 43
0.0
 10
7907949.4494
 20
-284780.5663
 10
7907949.9667
 20
-284780.5663
  0
LWPOLYLINE
  5
AD2
330
1F
100
AcDbEntity
  8
0
  6
Continuous
 62
     7
100
AcDbPolyline
 90
        2
 70
     0
 43
0.0
 10
7907938.5855
 20
-284889.3024
 10
7907939.1028
 20
-284889.3024
  0
LWPOLYLINE
  5
AD6
330
1F
100
AcDbEntity
  8
0
  6
Continuous
 62
     7
100
AcDbPolyline
 90
        2
 70
     0
 43
0.0
 10
7907942.2068
 20
-284889.3024
 10
7907942.7241
 20
-284889.3024
  0
LWPOLYLINE
  5
ADA
330
1F
100
AcDbEntity
  8
0
  6
Continuous
 62
     7
100
AcDbPolyline
 90
        2
 70
     0
 43
0.0
 10
7907945.8281
 20
-284889.3024
 10
7907946.3454
 20
-284889.3024
  0
LWPOLYLINE
  5
ADE
330
1F
100
AcDbEntity
  8
0
  6
Continuous
 62
     7
100
AcDbPolyline
 90
        2
 70
     0
 43
0.0
 10
7907949.4494
 20
-284889.3024
 10
7907949.9667
 20
-284889.3024
  0
LWPOLYLINE
  5
AE2
330
1F
100
AcDbEntity
  8
0
  6
Continuous
 62
     7
100
AcDbPolyline
 90
        2
 70
     0
 43
0.0
 10
7907940.1375
 20
-284891.1454
 10
7907940.6548
 20
-284891.1454
  0
LWPOLYLINE
  5
AE6
330
1F
100
AcDbEntity
  8
0
  6
Continuous
 62
     7
100
AcDbPolyline
 90
        2
 70
     0
 43
0.0
 10
7907943.7588
 20
-284891.1454
 10
7907944.2761
 20
-284891.1454
  0
LWPOLYLINE
  5
AEA
330
1F
100
AcDbEntity
  8
0
  6
Continuous
 62
     7
100
AcDbPolyline
 90
        2
 70
     0
 43
0.0
 10
7907947.3801
 20
-284891.1454
 10
7907947.8974
 20
-284891.1454
  0
LWPOLYLINE
  5
AEE
330
1F
100
AcDbEntity
  8
0
  6
Continuous
 62
     7
100
AcDbPolyline
 90
        2
 70
     0
 43
0.0
 10
7907938.0682
 20
-284892.9884
 10
7907938.5855
 20
-284892.9884
  0
LWPOLYLINE
  5
AF2
330
1F
100
AcDbEntity
  8
0
  6
Continuous
 62
     7
100
AcDbPolyline
 90
        2
 70
     0
 43
0.0
 10
7907941.6895
 20
-284892.9884
 10
7907942.2068
 20
-284892.9884
  0
LWPOLYLINE
  5
AF6
330
1F
100
AcDbEntity
  8
0
  6
Continuous
 62
     7
100
AcDbPolyline
 90
        2
 70
     0
 43
0.0
 10
7907945.3108
 20
-284892.9884
 10
7907945.8281
 20
-284892.9884
  0
LWPOLYLINE
  5
AFA
330
1F
100
AcDbEntity
  8
0
  6
Continuous
 62
     7
100
AcDbPolyline
 90
        2
 70
     0
 43
0.0
 10
7907948.9321
 20
-284892.9884
 10
7907949.4494
 20
-284892.9884
  0
LWPOLYLINE
  5
AFE
330
1F
100
AcDbEntity
  8
0
  6
Continuous
 62
     7
100
AcDbPolyline
 90
        2
 70
     0
 43
0.0
 10
7907939.6202
 20
-284894.8313
 10
7907940.1375
 20
-284894.8313
  0
LWPOLYLINE
  5
B02
330
1F
100
AcDbEntity
  8
0
  6
Continuous
 62
     7
100
AcDbPolyline
 90
        2
 70
     0
 43
0.0
 10
7907943.2415
 20
-284894.8313
 10
7907943.7588
 20
-284894.8313
  0
LWPOLYLINE
  5
B06
330
1F
100
AcDbEntity
  8
0
  6
Continuous
 62
     7
100
AcDbPolyline
 90
        2
 70
     0
 43
0.0
 10
7907946.8628
 20
-284894.8313
 10
7907947.3801
 20
-284894.8313
  0
LWPOLYLINE
  5
B0A
330
1F
100
AcDbEntity
  8
0
  6
Continuous
 62
     7
100
AcDbPolyline
 90
        2
 70
     0
 43
0.0
 10
7907941.1722
 20
-284896.6743
 10
7907941.6895
 20
-284896.6743
  0
LWPOLYLINE
  5
B0E
330
1F
100
AcDbEntity
  8
0
  6
Continuous
 62
     7
100
AcDbPolyline
 90
        2
 70
     0
 43
0.0
 10
7907944.7935
 20
-284896.6743
 10
7907945.3108
 20
-284896.6743
  0
LWPOLYLINE
  5
B12
330
1F
100
AcDbEntity
  8
0
  6
Continuous
 62
     7
100
AcDbPolyline
 90
        2
 70
     0
 43
0.0
 10
7907948.4148
 20
-284896.6743
 10
7907948.9321
 20
-284896.6743
  0
LWPOLYLINE
  5
B16
330
1F
100
AcDbEntity
  8
0
  6
Continuous
 62
     7
100
AcDbPolyline
 90
        2
 70
     0
 43
0.0
 10
7907939.1028
 20
-284898.5173
 10
7907939.6202
 20
-284898.5173
  0
LWPOLYLINE
  5
B1A
330
1F
100
AcDbEntity
  8
0
  6
Continuous
 62
     7
100
AcDbPolyline
 90
        2
 70
     0
 43
0.0
 10
7907942.7241
 20
-284898.5173
 10
7907943.2415
 20
-284898.5173
  0
LWPOLYLINE
  5
B1E
330
1F
100
AcDbEntity
  8
0
  6
Continuous
 62
     7
100
AcDbPolyline
 90
        2
 70
     0
 43
0.0
 10
7907946.3454
 20
-284898.5173
 10
7907946.8628
 20
-284898.5173
  0
LWPOLYLINE
  5
B22
330
1F
100
AcDbEntity
  8
0
  6
Continuous
 62
     7
100
AcDbPolyline
 90
        2
 70
     0
 43
0.0
 10
7907949.9667
 20
-284898.5173
 10
7907950.4841
 20
-284898.5173
  0
LWPOLYLINE
  5
B26
330
1F
100
AcDbEntity
  8
0
  6
Continuous
 62
     7
100
AcDbPolyline
 90
        2
 70
     0
 43
0.0
 10
7907940.6548
 20
-284900.3603
 10
7907941.1722
 20
-284900.3603
  0
LWPOLYLINE
  5
B2A
330
1F
100
AcDbEntity
  8
0
  6
Continuous
 62
     7
100
AcDbPolyline
 90
        2
 70
     0
 43
0.0
 10
7907944.2761
 20
-284900.3603
 10
7907944.7935
 20
-284900.3603
  0
LWPOLYLINE
  5
B2E
330
1F
100
AcDbEntity
  8
0
  6
Continuous
 62
     7
100
AcDbPolyline
 90
        2
 70
     0
 43
0.0
 10
7907947.8974
 20
-284900.3603
 10
7907948.4148
 20
-284900.3603
  0
LWPOLYLINE
  5
B32
330
1F
100
AcDbEntity
  8
0
  6
Continuous
 62
     7
100
AcDbPolyline
 90
        2
 70
     0
 43
0.0
 10
7907938.5855
 20
-284902.2033
 10
7907939.1028
 20
-284902.2033
  0
LWPOLYLINE
  5
B36
330
1F
100
AcDbEntity
  8
0
  6
Continuous
 62
     7
100
AcDbPolyline
 90
        2
 70
     0
 43
0.0
 10
7907942.2068
 20
-284902.2033
 10
7907942.7241
 20
-284902.2033
  0
LWPOLYLINE
  5
B3A
330
1F
100
AcDbEntity
  8
0
  6
Continuous
 62
     7
100
AcDbPolyline
 90
        2
 70
     0
 43
0.0
 10
7907945.8281
 20
-284902.2033
 10
7907946.3454
 20
-284902.2033
  0
LWPOLYLINE
  5
B3E
330
1F
100
AcDbEntity
  8
0
  6
Continuous
 62
     7
100
AcDbPolyline
 90
        2
 70
     0
 43
0.0
 10
7907949.4494
 20
-284902.2033
 10
7907949.9667
 20
-284902.2033
  0
LWPOLYLINE
  5
B42
330
1F
100
AcDbEntity
  8
0
  6
Continuous
 62
     7
100
AcDbPolyline
 90
        2
 70
     0
 43
0.0
 10
7907940.6548
 20
-284904.0463
 10
7907941.1722
 20
-284904.0463
  0
LWPOLYLINE
  5
B46
330
1F
100
AcDbEntity
  8
0
  6
Continuous
 62
     7
100
AcDbPolyline
 90
        2
 70
     0
 43
0.0
 10
7907944.2761
 20
-284904.0463
 10
7907944.7935
 20
-284904.0463
  0
LWPOLYLINE
  5
B4A
330
1F
100
AcDbEntity
  8
0
  6
Continuous
 62
     7
100
AcDbPolyline
 90
        2
 70
     0
 43
0.0
 10
7907947.8974
 20
-284904.0463
 10
7907948.4148
 20
-284904.0463
  0
LWPOLYLINE
  5
B4E
330
1F
100
AcDbEntity
  8
0
  6
Continuous
 62
     7
100
AcDbPolyline
 90
        2
 70
     0
 43
0.0
 10
7907938.5855
 20
-284905.8892
 10
7907939.1028
 20
-284905.8892
  0
LWPOLYLINE
  5
B52
330
1F
100
AcDbEntity
  8
0
  6
Continuous
 62
     7
100
AcDbPolyline
 90
        2
 70
     0
 43
0.0
 10
7907942.2068
 20
-284905.8892
 10
7907942.7241
 20
-284905.8892
  0
LWPOLYLINE
  5
B56
330
1F
100
AcDbEntity
  8
0
  6
Continuous
 62
     7
100
AcDbPolyline
 90
        2
 70
     0
 43
0.0
 10
7907945.8281
 20
-284905.8892
 10
7907946.3454
 20
-284905.8892
  0
LWPOLYLINE
  5
B5A
330
1F
100
AcDbEntity
  8
0
  6
Continuous
 62
     7
100
AcDbPolyline
 90
        2
 70
     0
 43
0.0
 10
7907949.4494
 20
-284905.8892
 10
7907949.9667
 20
-284905.8892
  0
LWPOLYLINE
  5
B5E
330
1F
100
AcDbEntity
  8
0
  6
Continuous
 62
     7
100
AcDbPolyline
 90
        2
 70
     0
 43
0.0
 10
7907940.1375
 20
-284907.7322
 10
7907940.6548
 20
-284907.7322
  0
LWPOLYLINE
  5
B62
330
1F
100
AcDbEntity
  8
0
  6
Continuous
 62
     7
100
AcDbPolyline
 90
        2
 70
     0
 43
0.0
 10
7907943.7588
 20
-284907.7322
 10
7907944.2761
 20
-284907.7322
  0
LWPOLYLINE
  5
B66
330
1F
100
AcDbEntity
  8
0
  6
Continuous
 62
     7
100
AcDbPolyline
 90
        2
 70
     0
 43
0.0
 10
7907947.3801
 20
-284907.7322
 10
7907947.8974
 20
-284907.7322
  0
LWPOLYLINE
  5
B6A
330
1F
100
AcDbEntity
  8
0
  6
Continuous
 62
     7
100
AcDbPolyline
 90
        2
 70
     0
 43
0.0
 10
7907938.0682
 20
-284909.5752
 10
7907938.0682
 20
-284909.5752
  0
LWPOLYLINE
  5
B6E
330
1F
100
AcDbEntity
  8
0
  6
Continuous
 62
     7
100
AcDbPolyline
 90
        2
 70
     0
 43
0.0
 10
7907941.1722
 20
-284909.5752
 10
7907941.6895
 20
-284909.5752
  0
LWPOLYLINE
  5
B72
330
1F
100
AcDbEntity
  8
0
  6
Continuous
 62
     7
100
AcDbPolyline
 90
        2
 70
     0
 43
0.0
 10
7907944.7935
 20
-284909.5752
 10
7907945.3108
 20
-284909.5752
  0
LWPOLYLINE
  5
B76
330
1F
100
AcDbEntity
  8
0
  6
Continuous
 62
     7
100
AcDbPolyline
 90
        2
 70
     0
 43
0.0
 10
7907948.4148
 20
-284909.5752
 10
7907948.9321
 20
-284909.5752
  0
LWPOLYLINE
  5
B7A
330
1F
100
AcDbEntity
  8
0
  6
Continuous
 62
     7
100
AcDbPolyline
 90
        2
 70
     0
 43
0.0
 10
7907939.6202
 20
-284911.4182
 10
7907940.1375
 20
-284911.4182
  0
LWPOLYLINE
  5
B7E
330
1F
100
AcDbEntity
  8
0
  6
Continuous
 62
     7
100
AcDbPolyline
 90
        2
 70
     0
 43
0.0
 10
7907943.2415
 20
-284911.4182
 10
7907943.7588
 20
-284911.4182
  0
LWPOLYLINE
  5
B82
330
1F
100
AcDbEntity
  8
0
  6
Continuous
 62
     7
100
AcDbPolyline
 90
        2
 70
     0
 43
0.0
 10
7907946.8628
 20
-284911.4182
 10
7907947.3801
 20
-284911.4182
  0
LWPOLYLINE
  5
B86
330
1F
100
AcDbEntity
  8
0
  6
Continuous
 62
     7
100
AcDbPolyline
 90
        2
 70
     0
 43
0.0
 10
7907941.1722
 20
-284913.2612
 10
7907941.6895
 20
-284913.2612
  0
LWPOLYLINE
  5
B8A
330
1F
100
AcDbEntity
  8
0
  6
Continuous
 62
     7
100
AcDbPolyline
 90
        2
 70
     0
 43
0.0
 10
7907944.7935
 20
-284913.2612
 10
7907945.3108
 20
-284913.2612
  0
LWPOLYLINE
  5
B8E
330
1F
100
AcDbEntity
  8
0
  6
Continuous
 62
     7
100
AcDbPolyline
 90
        2
 70
     0
 43
0.0
 10
7907948.4148
 20
-284913.2612
 10
7907948.9321
 20
-284913.2612
  0
LWPOLYLINE
  5
B92
330
1F
100
AcDbEntity
  8
0
  6
Continuous
 62
     7
100
AcDbPolyline
 90
        2
 70
     0
 43
0.0
 10
7907939.1028
 20
-284915.1042
 10
7907939.6202
 20
-284915.1042
  0
LWPOLYLINE
  5
B96
330
1F
100
AcDbEntity
  8
0
  6
Continuous
 62
     7
100
AcDbPolyline
 90
        2
 70
     0
 43
0.0
 10
7907942.7241
 20
-284915.1042
 10
7907943.2415
 20
-284915.1042
  0
LWPOLYLINE
  5
B9A
330
1F
100
AcDbEntity
  8
0
  6
Continuous
 62
     7
100
AcDbPolyline
 90
        2
 70
     0
 43
0.0
 10
7907946.3454
 20
-284915.1042
 10
7907946.8628
 20
-284915.1042
  0
LWPOLYLINE
  5
B9E
330
1F
100
AcDbEntity
  8
0
  6
Continuous
 62
     7
100
AcDbPolyline
 90
        2
 70
     0
 43
0.0
 10
7907949.9667
 20
-284915.1042
 10
7907950.4841
 20
-284915.1042
  0
LWPOLYLINE
  5
BA2
330
1F
100
AcDbEntity
  8
0
  6
Continuous
 62
     7
100
AcDbPolyline
 90
        2
 70
     0
 43
0.0
 10
7907940.6548
 20
-284916.9471
 10
7907941.1722
 20
-284916.9471
  0
LWPOLYLINE
  5
BA6
330
1F
100
AcDbEntity
  8
0
  6
Continuous
 62
     7
100
AcDbPolyline
 90
        2
 70
     0
 43
0.0
 10
7907944.2761
 20
-284916.9471
 10
7907944.7935
 20
-284916.9471
  0
LWPOLYLINE
  5
BAA
330
1F
100
AcDbEntity
  8
0
  6
Continuous
 62
     7
100
AcDbPolyline
 90
        2
 70
     0
 43
0.0
 10
7907947.8974
 20
-284916.9471
 10
7907948.4148
 20
-284916.9471
  0
LWPOLYLINE
  5
BAE
330
1F
100
AcDbEntity
  8
0
  6
Continuous
 62
     7
100
AcDbPolyline
 90
        2
 70
     0
 43
0.0
 10
7907938.5855
 20
-284918.7901
 10
7907939.1028
 20
-284918.7901
  0
LWPOLYLINE
  5
BB2
330
1F
100
AcDbEntity
  8
0
  6
Continuous
 62
     7
100
AcDbPolyline
 90
        2
 70
     0
 43
0.0
 10
7907942.2068
 20
-284918.7901
 10
7907942.7241
 20
-284918.7901
  0
LWPOLYLINE
  5
BB6
330
1F
100
AcDbEntity
  8
0
  6
Continuous
 62
     7
100
AcDbPolyline
 90
        2
 70
     0
 43
0.0
 10
7907945.8281
 20
-284918.7901
 10
7907946.3454
 20
-284918.7901
  0
LWPOLYLINE
  5
BBA
330
1F
100
AcDbEntity
  8
0
  6
Continuous
 62
     7
100
AcDbPolyline
 90
        2
 70
     0
 43
0.0
 10
7907949.4494
 20
-284918.7901
 10
7907949.9667
 20
-284918.7901
  0
LWPOLYLINE
  5
BBE
330
1F
100
AcDbEntity
  8
0
  6
Continuous
 62
     7
100
AcDbPolyline
 90
        2
 70
     0
 43
0.0
 10
7907940.1375
 20
-284920.6331
 10
7907940.6548
 20
-284920.6331
  0
LWPOLYLINE
  5
BC2
330
1F
100
AcDbEntity
  8
0
  6
Continuous
 62
     7
100
AcDbPolyline
 90
        2
 70
     0
 43
0.0
 10
7907943.7588
 20
-284920.6331
 10
7907944.2761
 20
-284920.6331
  0
LWPOLYLINE
  5
BC6
330
1F
100
AcDbEntity
  8
0
  6
Continuous
 62
     7
100
AcDbPolyline
 90
        2
 70
     0
 43
0.0
 10
7907947.3801
 20
-284920.6331
 10
7907947.8974
 20
-284920.6331
  0
LWPOLYLINE
  5
BCA
330
1F
100
AcDbEntity
  8
0
  6
Continuous
 62
     7
100
AcDbPolyline
 90
        2
 70
     0
 43
0.0
 10
7907938.0682
 20
-284922.4761
 10
7907938.5855
 20
-284922.4761
  0
LWPOLYLINE
  5
BCE
330
1F
100
AcDbEntity
  8
0
  6
Continuous
 62
     7
100
AcDbPolyline
 90
        2
 70
     0
 43
0.0
 10
7907941.6895
 20
-284922.4761
 10
7907942.2068
 20
-284922.4761
  0
LWPOLYLINE
  5
BD2
330
1F
100
AcDbEntity
  8
0
  6
Continuous
 62
     7
100
AcDbPolyline
 90
        2
 70
     0
 43
0.0
 10
7907945.3108
 20
-284922.4761
 10
7907945.8281
 20
-284922.4761
  0
LWPOLYLINE
  5
BD6
330
1F
100
AcDbEntity
  8
0
  6
Continuous
 62
     7
100
AcDbPolyline
 90
        2
 70
     0
 43
0.0
 10
7907948.9321
 20
-284922.4761
 10
7907949.4494
 20
-284922.4761
  0
LWPOLYLINE
  5
BDA
330
1F
100
AcDbEntity
  8
0
  6
Continuous
 62
     7
100
AcDbPolyline
 90
        2
 70
     0
 43
0.0
 10
7907940.1375
 20
-284924.3191
 10
7907940.6548
 20
-284924.3191
  0
LWPOLYLINE
  5
BDE
330
1F
100
AcDbEntity
  8
0
  6
Continuous
 62
     7
100
AcDbPolyline
 90
        2
 70
     0
 43
0.0
 10
7907943.7588
 20
-284924.3191
 10
7907944.2761
 20
-284924.3191
  0
LWPOLYLINE
  5
BE2
330
1F
100
AcDbEntity
  8
0
  6
Continuous
 62
     7
100
AcDbPolyline
 90
        2
 70
     0
 43
0.0
 10
7907947.3801
 20
-284924.3191
 10
7907947.8974
 20
-284924.3191
  0
LWPOLYLINE
  5
BE6
330
1F
100
AcDbEntity
  8
0
  6
Continuous
 62
     7
100
AcDbPolyline
 90
        2
 70
     0
 43
0.0
 10
7907938.0682
 20
-284926.1621
 10
7907938.0682
 20
-284926.1621
  0
LWPOLYLINE
  5
BEA
330
1F
100
AcDbEntity
  8
0
  6
Continuous
 62
     7
100
AcDbPolyline
 90
        2
 70
     0
 43
0.0
 10
7907941.1722
 20
-284926.1621
 10
7907941.6895
 20
-284926.1621
  0
LWPOLYLINE
  5
BEE
330
1F
100
AcDbEntity
  8
0
  6
Continuous
 62
     7
100
AcDbPolyline
 90
        2
 70
     0
 43
0.0
 10
7907944.7935
 20
-284926.1621
 10
7907945.3108
 20
-284926.1621
  0
LWPOLYLINE
  5
BF2
330
1F
100
AcDbEntity
  8
0
  6
Continuous
 62
     7
100
AcDbPolyline
 90
        2
 70
     0
 43
0.0
 10
7907948.4148
 20
-284926.1621
 10
7907948.9321
 20
-284926.1621
  0
LWPOLYLINE
  5
BF6
330
1F
100
AcDbEntity
  8
0
  6
Continuous
 62
     7
100
AcDbPolyline
 90
        2
 70
     0
 43
0.0
 10
7907939.6202
 20
-284928.0051
 10
7907940.1375
 20
-284928.0051
  0
LWPOLYLINE
  5
BFA
330
1F
100
AcDbEntity
  8
0
  6
Continuous
 62
     7
100
AcDbPolyline
 90
        2
 70
     0
 43
0.0
 10
7907943.2415
 20
-284928.0051
 10
7907943.7588
 20
-284928.0051
  0
LWPOLYLINE
  5
BFE
330
1F
100
AcDbEntity
  8
0
  6
Continuous
 62
     7
100
AcDbPolyline
 90
        2
 70
     0
 43
0.0
 10
7907946.8628
 20
-284928.0051
 10
7907947.3801
 20
-284928.0051
  0
LWPOLYLINE
  5
C02
330
1F
100
AcDbEntity
  8
0
  6
Continuous
 62
     7
100
AcDbPolyline
 90
        2
 70
     0
 43
0.0
 10
7907941.1722
 20
-284929.848
 10
7907941.6895
 20
-284929.848
  0
LWPOLYLINE
  5
C06
330
1F
100
AcDbEntity
  8
0
  6
Continuous
 62
     7
100
AcDbPolyline
 90
        2
 70
     0
 43
0.0
 10
7907944.7935
 20
-284929.848
 10
7907945.3108
 20
-284929.848
  0
LWPOLYLINE
  5
C0A
330
1F
100
AcDbEntity
  8
0
  6
Continuous
 62
     7
100
AcDbPolyline
 90
        2
 70
     0
 43
0.0
 10
7907948.4148
 20
-284929.848
 10
7907948.9321
 20
-284929.848
  0
LWPOLYLINE
  5
C0E
330
1F
100
AcDbEntity
  8
0
  6
Continuous
 62
     7
100
AcDbPolyline
 90
        2
 70
     0
 43
0.0
 10
7907939.1028
 20
-284931.691
 10
7907939.6202
 20
-284931.691
  0
LWPOLYLINE
  5
C12
330
1F
100
AcDbEntity
  8
0
  6
Continuous
 62
     7
100
AcDbPolyline
 90
        2
 70
     0
 43
0.0
 10
7907942.7241
 20
-284931.691
 10
7907943.2415
 20
-284931.691
  0
LWPOLYLINE
  5
C16
330
1F
100
AcDbEntity
  8
0
  6
Continuous
 62
     7
100
AcDbPolyline
 90
        2
 70
     0
 43
0.0
 10
7907946.3454
 20
-284931.691
 10
7907946.8628
 20
-284931.691
  0
LWPOLYLINE
  5
C1A
330
1F
100
AcDbEntity
  8
0
  6
Continuous
 62
     7
100
AcDbPolyline
 90
        2
 70
     0
 43
0.0
 10
7907949.9667
 20
-284931.691
 10
7907950.4841
 20
-284931.691
  0
LWPOLYLINE
  5
C1E
330
1F
100
AcDbEntity
  8
0
  6
Continuous
 62
     7
100
AcDbPolyline
 90
        2
 70
     0
 43
0.0
 10
7907940.6548
 20
-284933.534
 10
7907941.1722
 20
-284933.534
  0
LWPOLYLINE
  5
C22
330
1F
100
AcDbEntity
  8
0
  6
Continuous
 62
     7
100
AcDbPolyline
 90
        2
 70
     0
 43
0.0
 10
7907944.2761
 20
-284933.534
 10
7907944.7935
 20
-284933.534
  0
LWPOLYLINE
  5
C26
330
1F
100
AcDbEntity
  8
0
  6
Continuous
 62
     7
100
AcDbPolyline
 90
        2
 70
     0
 43
0.0
 10
7907947.8974
 20
-284933.534
 10
7907948.4148
 20
-284933.534
  0
LWPOLYLINE
  5
C2A
330
1F
100
AcDbEntity
  8
0
  6
Continuous
 62
     7
100
AcDbPolyline
 90
        2
 70
     0
 43
0.0
 10
7907938.5855
 20
-284935.377
 10
7907939.1028
 20
-284935.377
  0
LWPOLYLINE
  5
C2E
330
1F
100
AcDbEntity
  8
0
  6
Continuous
 62
     7
100
AcDbPolyline
 90
        2
 70
     0
 43
0.0
 10
7907942.2068
 20
-284935.377
 10
7907942.7241
 20
-284935.377
  0
LWPOLYLINE
  5
C32
330
1F
100
AcDbEntity
  8
0
  6
Continuous
 62
     7
100
AcDbPolyline
 90
        2
 70
     0
 43
0.0
 10
7907945.8281
 20
-284935.377
 10
7907946.3454
 20
-284935.377
  0
LWPOLYLINE
  5
C36
330
1F
100
AcDbEntity
  8
0
  6
Continuous
 62
     7
100
AcDbPolyline
 90
        2
 70
     0
 43
0.0
 10
7907949.4494
 20
-284935.377
 10
7907949.9667
 20
-284935.377
  0
LWPOLYLINE
  5
C3A
330
1F
100
AcDbEntity
  8
0
  6
Continuous
 62
     7
100
AcDbPolyline
 90
        2
 70
     0
 43
0.0
 10
7907940.1375
 20
-284937.22
 10
7907940.6548
 20
-284937.22
  0
LWPOLYLINE
  5
C3E
330
1F
100
AcDbEntity
  8
0
  6
Continuous
 62
     7
100
AcDbPolyline
 90
        2
 70
     0
 43
0.0
 10
7907943.7588
 20
-284937.22
 10
7907944.2761
 20
-284937.22
  0
LWPOLYLINE
  5
C42
330
1F
100
AcDbEntity
  8
0
  6
Continuous
 62
     7
100
AcDbPolyline
 90
        2
 70
     0
 43
0.0
 10
7907947.3801
 20
-284937.22
 10
7907947.8974
 20
-284937.22
  0
LWPOLYLINE
  5
C46
330
1F
100
AcDbEntity
  8
0
  6
Continuous
 62
     7
100
AcDbPolyline
 90
        2
 70
     0
 43
0.0
 10
7907938.0682
 20
-284939.063
 10
7907938.5855
 20
-284939.063
  0
LWPOLYLINE
  5
C4A
330
1F
100
AcDbEntity
  8
0
  6
Continuous
 62
     7
100
AcDbPolyline
 90
        2
 70
     0
 43
0.0
 10
7907941.6895
 20
-284939.063
 10
7907942.2068
 20
-284939.063
  0
LWPOLYLINE
  5
C4E
330
1F
100
AcDbEntity
  8
0
  6
Continuous
 62
     7
100
AcDbPolyline
 90
        2
 70
     0
 43
0.0
 10
7907945.3108
 20
-284939.063
 10
7907945.8281
 20
-284939.063
  0
LWPOLYLINE
  5
C52
330
1F
100
AcDbEntity
  8
0
  6
Continuous
 62
     7
100
AcDbPolyline
 90
        2
 70
     0
 43
0.0
 10
7907948.9321
 20
-284939.063
 10
7907949.4494
 20
-284939.063
  0
LWPOLYLINE
  5
C56
330
1F
100
AcDbEntity
  8
0
  6
Continuous
 62
     7
100
AcDbPolyline
 90
        2
 70
     0
 43
0.0
 10
7907939.6202
 20
-284940.9059
 10
7907940.1375
 20
-284940.9059
  0
LWPOLYLINE
  5
C5A
330
1F
100
AcDbEntity
  8
0
  6
Continuous
 62
     7
100
AcDbPolyline
 90
        2
 70
     0
 43
0.0
 10
7907943.2415
 20
-284940.9059
 10
7907943.7588
 20
-284940.9059
  0
LWPOLYLINE
  5
C5E
330
1F
100
AcDbEntity
  8
0
  6
Continuous
 62
     7
100
AcDbPolyline
 90
        2
 70
     0
 43
0.0
 10
7907946.8628
 20
-284940.9059
 10
7907947.3801
 20
-284940.9059
  0
LWPOLYLINE
  5
C62
330
1F
100
AcDbEntity
  8
0
  6
Continuous
 62
     7
100
AcDbPolyline
 90
        2
 70
     0
 43
0.0
 10
7907941.1722
 20
-284942.7489
 10
7907941.6895
 20
-284942.7489
  0
LWPOLYLINE
  5
C66
330
1F
100
AcDbEntity
  8
0
  6
Continuous
 62
     7
100
AcDbPolyline
 90
        2
 70
     0
 43
0.0
 10
7907944.7935
 20
-284942.7489
 10
7907945.3108
 20
-284942.7489
  0
LWPOLYLINE
  5
C6A
330
1F
100
AcDbEntity
  8
0
  6
Continuous
 62
     7
100
AcDbPolyline
 90
        2
 70
     0
 43
0.0
 10
7907948.4148
 20
-284942.7489
 10
7907948.9321
 20
-284942.7489
  0
LWPOLYLINE
  5
C6E
330
1F
100
AcDbEntity
  8
0
  6
Continuous
 62
     7
100
AcDbPolyline
 90
        2
 70
     0
 43
0.0
 10
7907939.1028
 20
-284944.5919
 10
7907939.6202
 20
-284944.5919
  0
LWPOLYLINE
  5
C72
330
1F
100
AcDbEntity
  8
0
  6
Continuous
 62
     7
100
AcDbPolyline
 90
        2
 70
     0
 43
0.0
 10
7907942.7241
 20
-284944.5919
 10
7907943.2415
 20
-284944.5919
  0
LWPOLYLINE
  5
C76
330
1F
100
AcDbEntity
  8
0
  6
Continuous
 62
     7
100
AcDbPolyline
 90
        2
 70
     0
 43
0.0
 10
7907946.3454
 20
-284944.5919
 10
7907946.8628
 20
-284944.5919
  0
LWPOLYLINE
  5
C7A
330
1F
100
AcDbEntity
  8
0
  6
Continuous
 62
     7
100
AcDbPolyline
 90
        2
 70
     0
 43
0.0
 10
7907949.9667
 20
-284944.5919
 10
7907950.4841
 20
-284944.5919
  0
LWPOLYLINE
  5
C7E
330
1F
100
AcDbEntity
  8
0
  6
Continuous
 62
     7
100
AcDbPolyline
 90
        2
 70
     0
 43
0.0
 10
7907940.6548
 20
-284946.4349
 10
7907941.1722
 20
-284946.4349
  0
LWPOLYLINE
  5
C82
330
1F
100
AcDbEntity
  8
0
  6
Continuous
 62
     7
100
AcDbPolyline
 90
        2
 70
     0
 43
0.0
 10
7907944.2761
 20
-284946.4349
 10
7907944.7935
 20
-284946.4349
  0
LWPOLYLINE
  5
C86
330
1F
100
AcDbEntity
  8
0
  6
Continuous
 62
     7
100
AcDbPolyline
 90
        2
 70
     0
 43
0.0
 10
7907947.8974
 20
-284946.4349
 10
7907948.4148
 20
-284946.4349
  0
LWPOLYLINE
  5
C8A
330
1F
100
AcDbEntity
  8
0
  6
Continuous
 62
     7
100
AcDbPolyline
 90
        2
 70
     0
 43
0.0
 10
7907938.5855
 20
-284948.2779
 10
7907939.1028
 20
-284948.2779
  0
LWPOLYLINE
  5
C8E
330
1F
100
AcDbEntity
  8
0
  6
Continuous
 62
     7
100
AcDbPolyline
 90
        2
 70
     0
 43
0.0
 10
7907942.2068
 20
-284948.2779
 10
7907942.7241
 20
-284948.2779
  0
LWPOLYLINE
  5
C92
330
1F
100
AcDbEntity
  8
0
  6
Continuous
 62
     7
100
AcDbPolyline
 90
        2
 70
     0
 43
0.0
 10
7907945.8281
 20
-284948.2779
 10
7907946.3454
 20
-284948.2779
  0
LWPOLYLINE
  5
C96
330
1F
100
AcDbEntity
  8
0
  6
Continuous
 62
     7
100
AcDbPolyline
 90
        2
 70
     0
 43
0.0
 10
7907949.4494
 20
-284948.2779
 10
7907949.9667
 20
-284948.2779
  0
LWPOLYLINE
  5
C9A
330
1F
100
AcDbEntity
  8
0
  6
Continuous
 62
     7
100
AcDbPolyline
 90
        2
 70
     0
 43
0.0
 10
7907940.6548
 20
-284950.1209
 10
7907941.1722
 20
-284950.1209
  0
LWPOLYLINE
  5
C9E
330
1F
100
AcDbEntity
  8
0
  6
Continuous
 62
     7
100
AcDbPolyline
 90
        2
 70
     0
 43
0.0
 10
7907944.2761
 20
-284950.1209
 10
7907944.7935
 20
-284950.1209
  0
LWPOLYLINE
  5
CA2
330
1F
100
AcDbEntity
  8
0
  6
Continuous
 62
     7
100
AcDbPolyline
 90
        2
 70
     0
 43
0.0
 10
7907947.8974
 20
-284950.1209
 10
7907948.4148
 20
-284950.1209
  0
LWPOLYLINE
  5
CA6
330
1F
100
AcDbEntity
  8
0
  6
Continuous
 62
     7
100
AcDbPolyline
 90
        2
 70
     0
 43
0.0
 10
7907938.5855
 20
-284951.9638
 10
7907939.1028
 20
-284951.9638
  0
LWPOLYLINE
  5
CAA
330
1F
100
AcDbEntity
  8
0
  6
Continuous
 62
     7
100
AcDbPolyline
 90
        2
 70
     0
 43
0.0
 10
7907942.2068
 20
-284951.9638
 10
7907942.7241
 20
-284951.9638
  0
LWPOLYLINE
  5
CAE
330
1F
100
AcDbEntity
  8
0
  6
Continuous
 62
     7
100
AcDbPolyline
 90
        2
 70
     0
 43
0.0
 10
7907945.8281
 20
-284951.9638
 10
7907946.3454
 20
-284951.9638
  0
LWPOLYLINE
  5
CB2
330
1F
100
AcDbEntity
  8
0
  6
Continuous
 62
     7
100
AcDbPolyline
 90
        2
 70
     0
 43
0.0
 10
7907949.4494
 20
-284951.9638
 10
7907949.9667
 20
-284951.9638
  0
LWPOLYLINE
  5
CB6
330
1F
100
AcDbEntity
  8
0
  6
Continuous
 62
     7
100
AcDbPolyline
 90
        2
 70
     0
 43
0.0
 10
7907940.1375
 20
-284953.8068
 10
7907940.6548
 20
-284953.8068
  0
LWPOLYLINE
  5
CBA
330
1F
100
AcDbEntity
  8
0
  6
Continuous
 62
     7
100
AcDbPolyline
 90
        2
 70
     0
 43
0.0
 10
7907943.7588
 20
-284953.8068
 10
7907944.2761
 20
-284953.8068
  0
LWPOLYLINE
  5
CBE
330
1F
100
AcDbEntity
  8
0
  6
Continuous
 62
     7
100
AcDbPolyline
 90
        2
 70
     0
 43
0.0
 10
7907947.3801
 20
-284953.8068
 10
7907947.8974
 20
-284953.8068
  0
LWPOLYLINE
  5
CC2
330
1F
100
AcDbEntity
  8
0
  6
Continuous
 62
     7
100
AcDbPolyline
 90
        2
 70
     0
 43
0.0
 10
7907938.0682
 20
-284955.6498
 10
7907938.0682
 20
-284955.6498
  0
LWPOLYLINE
  5
CC6
330
1F
100
AcDbEntity
  8
0
  6
Continuous
 62
     7
100
AcDbPolyline
 90
        2
 70
     0
 43
0.0
 10
7907941.1722
 20
-284955.6498
 10
7907941.6895
 20
-284955.6498
  0
LWPOLYLINE
  5
CCA
330
1F
100
AcDbEntity
  8
0
  6
Continuous
 62
     7
100
AcDbPolyline
 90
        2
 70
     0
 43
0.0
 10
7907944.7935
 20
-284955.6498
 10
7907945.3108
 20
-284955.6498
  0
LWPOLYLINE
  5
CCE
330
1F
100
AcDbEntity
  8
0
  6
Continuous
 62
     7
100
AcDbPolyline
 90
        2
 70
     0
 43
0.0
 10
7907948.4148
 20
-284955.6498
 10
7907948.9321
 20
-284955.6498
  0
LWPOLYLINE
  5
CD2
330
1F
100
AcDbEntity
  8
0
  6
Continuous
 62
     7
100
AcDbPolyline
 90
        2
 70
     0
 43
0.0
 10
7907939.6202
 20
-284957.4928
 10
7907940.1375
 20
-284957.4928
  0
LWPOLYLINE
  5
CD6
330
1F
100
AcDbEntity
  8
0
  6
Continuous
 62
     7
100
AcDbPolyline
 90
        2
 70
     0
 43
0.0
 10
7907943.2415
 20
-284957.4928
 10
7907943.7588
 20
-284957.4928
  0
LWPOLYLINE
  5
CDA
330
1F
100
AcDbEntity
  8
0
  6
Continuous
 62
     7
100
AcDbPolyline
 90
        2
 70
     0
 43
0.0
 10
7907946.8628
 20
-284957.4928
 10
7907947.3801
 20
-284957.4928
  0
LWPOLYLINE
  5
CDE
330
1F
100
AcDbEntity
  8
0
  6
Continuous
 62
     7
100
AcDbPolyline
 90
        2
 70
     0
 43
0.0
 10
7907941.1722
 20
-284959.3358
 10
7907941.6895
 20
-284959.3358
  0
LWPOLYLINE
  5
CE2
330
1F
100
AcDbEntity
  8
0
  6
Continuous
 62
     7
100
AcDbPolyline
 90
        2
 70
     0
 43
0.0
 10
7907944.7935
 20
-284959.3358
 10
7907945.3108
 20
-284959.3358
  0
LWPOLYLINE
  5
CE6
330
1F
100
AcDbEntity
  8
0
  6
Continuous
 62
     7
100
AcDbPolyline
 90
        2
 70
     0
 43
0.0
 10
7907948.4148
 20
-284959.3358
 10
7907948.9321
 20
-284959.3358
  0
LWPOLYLINE
  5
CEA
330
1F
100
AcDbEntity
  8
0
  6
Continuous
 62
     7
100
AcDbPolyline
 90
        2
 70
     0
 43
0.0
 10
7907939.1028
 20
-284961.1788
 10
7907939.6202
 20
-284961.1788
  0
LWPOLYLINE
  5
CEE
330
1F
100
AcDbEntity
  8
0
  6
Continuous
 62
     7
100
AcDbPolyline
 90
        2
 70
     0
 43
0.0
 10
7907942.7241
 20
-284961.1788
 10
7907943.2415
 20
-284961.1788
  0
LWPOLYLINE
  5
CF2
330
1F
100
AcDbEntity
  8
0
  6
Continuous
 62
     7
100
AcDbPolyline
 90
        2
 70
     0
 43
0.0
 10
7907946.3454
 20
-284961.1788
 10
7907946.8628
 20
-284961.1788
  0
LWPOLYLINE
  5
CF6
330
1F
100
AcDbEntity
  8
0
  6
Continuous
 62
     7
100
AcDbPolyline
 90
        2
 70
     0
 43
0.0
 10
7907949.9667
 20
-284961.1788
 10
7907950.4841
 20
-284961.1788
  0
LWPOLYLINE
  5
CFA
330
1F
100
AcDbEntity
  8
0
  6
Continuous
 62
     7
100
AcDbPolyline
 90
        2
 70
     0
 43
0.0
 10
7907940.6548
 20
-284963.0218
 10
7907941.1722
 20
-284963.0218
  0
LWPOLYLINE
  5
CFE
330
1F
100
AcDbEntity
  8
0
  6
Continuous
 62
     7
100
AcDbPolyline
 90
        2
 70
     0
 43
0.0
 10
7907944.2761
 20
-284963.0218
 10
7907944.7935
 20
-284963.0218
  0
LWPOLYLINE
  5
D02
330
1F
100
AcDbEntity
  8
0
  6
Continuous
 62
     7
100
AcDbPolyline
 90
        2
 70
     0
 43
0.0
 10
7907947.8974
 20
-284963.0218
 10
7907948.4148
 20
-284963.0218
  0
LWPOLYLINE
  5
D06
330
1F
100
AcDbEntity
  8
0
  6
Continuous
 62
     7
100
AcDbPolyline
 90
        2
 70
     0
 43
0.0
 10
7907938.5855
 20
-284964.8647
 10
7907939.1028
 20
-284964.8647
  0
LWPOLYLINE
  5
D0A
330
1F
100
AcDbEntity
  8
0
  6
Continuous
 62
     7
100
AcDbPolyline
 90
        2
 70
     0
 43
0.0
 10
7907942.2068
 20
-284964.8647
 10
7907942.7241
 20
-284964.8647
  0
LWPOLYLINE
  5
D0E
330
1F
100
AcDbEntity
  8
0
  6
Continuous
 62
     7
100
AcDbPolyline
 90
        2
 70
     0
 43
0.0
 10
7907945.8281
 20
-284964.8647
 10
7907946.3454
 20
-284964.8647
  0
LWPOLYLINE
  5
D12
330
1F
100
AcDbEntity
  8
0
  6
Continuous
 62
     7
100
AcDbPolyline
 90
        2
 70
     0
 43
0.0
 10
7907949.4494
 20
-284964.8647
 10
7907949.9667
 20
-284964.8647
  0
LWPOLYLINE
  5
D16
330
1F
100
AcDbEntity
  8
0
  6
Continuous
 62
     7
100
AcDbPolyline
 90
        2
 70
     0
 43
0.0
 10
7907940.1375
 20
-284966.7077
 10
7907940.6548
 20
-284966.7077
  0
LWPOLYLINE
  5
D1A
330
1F
100
AcDbEntity
  8
0
  6
Continuous
 62
     7
100
AcDbPolyline
 90
        2
 70
     0
 43
0.0
 10
7907943.7588
 20
-284966.7077
 10
7907944.2761
 20
-284966.7077
  0
LWPOLYLINE
  5
D1E
330
1F
100
AcDbEntity
  8
0
  6
Continuous
 62
     7
100
AcDbPolyline
 90
        2
 70
     0
 43
0.0
 10
7907947.3801
 20
-284966.7077
 10
7907947.8974
 20
-284966.7077
  0
LWPOLYLINE
  5
D22
330
1F
100
AcDbEntity
  8
0
  6
Continuous
 62
     7
100
AcDbPolyline
 90
        2
 70
     0
 43
0.0
 10
7907938.0682
 20
-284968.5507
 10
7907938.5855
 20
-284968.5507
  0
LWPOLYLINE
  5
D26
330
1F
100
AcDbEntity
  8
0
  6
Continuous
 62
     7
100
AcDbPolyline
 90
        2
 70
     0
 43
0.0
 10
7907941.6895
 20
-284968.5507
 10
7907942.2068
 20
-284968.5507
  0
LWPOLYLINE
  5
D2A
330
1F
100
AcDbEntity
  8
0
  6
Continuous
 62
     7
100
AcDbPolyline
 90
        2
 70
     0
 43
0.0
 10
7907945.3108
 20
-284968.5507
 10
7907945.8281
 20
-284968.5507
  0
LWPOLYLINE
  5
D2E
330
1F
100
AcDbEntity
  8
0
  6
Continuous
 62
     7
100
AcDbPolyline
 90
        2
 70
     0
 43
0.0
 10
7907948.9321
 20
-284968.5507
 10
7907949.4494
 20
-284968.5507
  0
LWPOLYLINE
  5
D32
330
1F
100
AcDbEntity
  8
0
  6
Continuous
 62
     7
100
AcDbPolyline
 90
        2
 70
     0
 43
0.0
 10
7907939.6202
 20
-284970.3937
 10
7907940.1375
 20
-284970.3937
  0
LWPOLYLINE
  5
D36
330
1F
100
AcDbEntity
  8
0
  6
Continuous
 62
     7
100
AcDbPolyline
 90
        2
 70
     0
 43
0.0
 10
7907943.2415
 20
-284970.3937
 10
7907943.7588
 20
-284970.3937
  0
LWPOLYLINE
  5
D3A
330
1F
100
AcDbEntity
  8
0
  6
Continuous
 62
     7
100
AcDbPolyline
 90
        2
 70
     0
 43
0.0
 10
7907946.8628
 20
-284970.3937
 10
7907947.3801
 20
-284970.3937
  0
LWPOLYLINE
  5
D3E
330
1F
100
AcDbEntity
  8
0
  6
Continuous
 62
     7
100
AcDbPolyline
 90
        2
 70
     0
 43
0.0
 10
7907938.0682
 20
-284972.2367
 10
7907938.0682
 20
-284972.2367
  0
LWPOLYLINE
  5
D42
330
1F
100
AcDbEntity
  8
0
  6
Continuous
 62
     7
100
AcDbPolyline
 90
        2
 70
     0
 43
0.0
 10
7907941.1722
 20
-284972.2367
 10
7907941.6895
 20
-284972.2367
  0
LWPOLYLINE
  5
D46
330
1F
100
AcDbEntity
  8
0
  6
Continuous
 62
     7
100
AcDbPolyline
 90
        2
 70
     0
 43
0.0
 10
7907944.7935
 20
-284972.2367
 10
7907945.3108
 20
-284972.2367
  0
LWPOLYLINE
  5
D4A
330
1F
100
AcDbEntity
  8
0
  6
Continuous
 62
     7
100
AcDbPolyline
 90
        2
 70
     0
 43
0.0
 10
7907948.4148
 20
-284972.2367
 10
7907948.9321
 20
-284972.2367
  0
LWPOLYLINE
  5
D4E
330
1F
100
AcDbEntity
  8
0
  6
Continuous
 62
     7
100
AcDbPolyline
 90
        2
 70
     0
 43
0.0
 10
7907939.1028
 20
-284974.0797
 10
7907939.6202
 20
-284974.0797
  0
LWPOLYLINE
  5
D52
330
1F
100
AcDbEntity
  8
0
  6
Continuous
 62
     7
100
AcDbPolyline
 90
        2
 70
     0
 43
0.0
 10
7907942.7241
 20
-284974.0797
 10
7907943.2415
 20
-284974.0797
  0
LWPOLYLINE
  5
D56
330
1F
100
AcDbEntity
  8
0
  6
Continuous
 62
     7
100
AcDbPolyline
 90
        2
 70
     0
 43
0.0
 10
7907946.3454
 20
-284974.0797
 10
7907946.8628
 20
-284974.0797
  0
LWPOLYLINE
  5
D5A
330
1F
100
AcDbEntity
  8
0
  6
Continuous
 62
     7
100
AcDbPolyline
 90
        2
 70
     0
 43
0.0
 10
7907949.9667
 20
-284974.0797
 10
7907950.4841
 20
-284974.0797
  0
LWPOLYLINE
  5
D5E
330
1F
100
AcDbEntity
  8
0
  6
Continuous
 62
     7
100
AcDbPolyline
 90
        2
 70
     0
 43
0.0
 10
7907941.1722
 20
-284975.9226
 10
7907941.6895
 20
-284975.9226
  0
LWPOLYLINE
  5
D62
330
1F
100
AcDbEntity
  8
0
  6
Continuous
 62
     7
100
AcDbPolyline
 90
        2
 70
     0
 43
0.0
 10
7907944.7935
 20
-284975.9226
 10
7907945.3108
 20
-284975.9226
  0
LWPOLYLINE
  5
D66
330
1F
100
AcDbEntity
  8
0
  6
Continuous
 62
     7
100
AcDbPolyline
 90
        2
 70
     0
 43
0.0
 10
7907948.4148
 20
-284975.9226
 10
7907948.9321
 20
-284975.9226
  0
LWPOLYLINE
  5
D6A
330
1F
100
AcDbEntity
  8
0
  6
Continuous
 62
     7
100
AcDbPolyline
 90
        2
 70
     0
 43
0.0
 10
7907939.1028
 20
-284977.7656
 10
7907939.6202
 20
-284977.7656
  0
LWPOLYLINE
  5
D6E
330
1F
100
AcDbEntity
  8
0
  6
Continuous
 62
     7
100
AcDbPolyline
 90
        2
 70
     0
 43
0.0
 10
7907942.7241
 20
-284977.7656
 10
7907943.2415
 20
-284977.7656
  0
LWPOLYLINE
  5
D72
330
1F
100
AcDbEntity
  8
0
  6
Continuous
 62
     7
100
AcDbPolyline
 90
        2
 70
     0
 43
0.0
 10
7907946.3454
 20
-284977.7656
 10
7907946.8628
 20
-284977.7656
  0
LWPOLYLINE
  5
D76
330
1F
100
AcDbEntity
  8
0
  6
Continuous
 62
     7
100
AcDbPolyline
 90
        2
 70
     0
 43
0.0
 10
7907949.9667
 20
-284977.7656
 10
7907950.4841
 20
-284977.7656
  0
LWPOLYLINE
  5
D7A
330
1F
100
AcDbEntity
  8
0
  6
Continuous
 62
     7
100
AcDbPolyline
 90
        2
 70
     0
 43
0.0
 10
7907940.6548
 20
-284979.6086
 10
7907941.1722
 20
-284979.6086
  0
LWPOLYLINE
  5
D7E
330
1F
100
AcDbEntity
  8
0
  6
Continuous
 62
     7
100
AcDbPolyline
 90
        2
 70
     0
 43
0.0
 10
7907944.2761
 20
-284979.6086
 10
7907944.7935
 20
-284979.6086
  0
LWPOLYLINE
  5
D82
330
1F
100
AcDbEntity
  8
0
  6
Continuous
 62
     7
100
AcDbPolyline
 90
        2
 70
     0
 43
0.0
 10
7907947.8974
 20
-284979.6086
 10
7907948.4148
 20
-284979.6086
  0
LWPOLYLINE
  5
D86
330
1F
100
AcDbEntity
  8
0
  6
Continuous
 62
     7
100
AcDbPolyline
 90
        2
 70
     0
 43
0.0
 10
7907938.5855
 20
-284981.4516
 10
7907939.1028
 20
-284981.4516
  0
LWPOLYLINE
  5
D8A
330
1F
100
AcDbEntity
  8
0
  6
Continuous
 62
     7
100
AcDbPolyline
 90
        2
 70
     0
 43
0.0
 10
7907942.2068
 20
-284981.4516
 10
7907942.7241
 20
-284981.4516
  0
LWPOLYLINE
  5
D8E
330
1F
100
AcDbEntity
  8
0
  6
Continuous
 62
     7
100
AcDbPolyline
 90
        2
 70
     0
 43
0.0
 10
7907945.8281
 20
-284981.4516
 10
7907946.3454
 20
-284981.4516
  0
LWPOLYLINE
  5
D92
330
1F
100
AcDbEntity
  8
0
  6
Continuous
 62
     7
100
AcDbPolyline
 90
        2
 70
     0
 43
0.0
 10
7907949.4494
 20
-284981.4516
 10
7907949.9667
 20
-284981.4516
  0
LWPOLYLINE
  5
D96
330
1F
100
AcDbEntity
  8
0
  6
Continuous
 62
     7
100
AcDbPolyline
 90
        2
 70
     0
 43
0.0
 10
7907940.1375
 20
-284983.2946
 10
7907940.6548
 20
-284983.2946
  0
LWPOLYLINE
  5
D9A
330
1F
100
AcDbEntity
  8
0
  6
Continuous
 62
     7
100
AcDbPolyline
 90
        2
 70
     0
 43
0.0
 10
7907943.7588
 20
-284983.2946
 10
7907944.2761
 20
-284983.2946
  0
LWPOLYLINE
  5
D9E
330
1F
100
AcDbEntity
  8
0
  6
Continuous
 62
     7
100
AcDbPolyline
 90
        2
 70
     0
 43
0.0
 10
7907947.3801
 20
-284983.2946
 10
7907947.8974
 20
-284983.2946
  0
LWPOLYLINE
  5
DA2
330
1F
100
AcDbEntity
  8
0
  6
Continuous
 62
     7
100
AcDbPolyline
 90
        2
 70
     0
 43
0.0
 10
7907938.0682
 20
-284985.1376
 10
7907938.5855
 20
-284985.1376
  0
LWPOLYLINE
  5
DA6
330
1F
100
AcDbEntity
  8
0
  6
Continuous
 62
     7
100
AcDbPolyline
 90
        2
 70
     0
 43
0.0
 10
7907941.6895
 20
-284985.1376
 10
7907942.2068
 20
-284985.1376
  0
LWPOLYLINE
  5
DAA
330
1F
100
AcDbEntity
  8
0
  6
Continuous
 62
     7
100
AcDbPolyline
 90
        2
 70
     0
 43
0.0
 10
7907945.3108
 20
-284985.1376
 10
7907945.8281
 20
-284985.1376
  0
LWPOLYLINE
  5
DAE
330
1F
100
AcDbEntity
  8
0
  6
Continuous
 62
     7
100
AcDbPolyline
 90
        2
 70
     0
 43
0.0
 10
7907948.9321
 20
-284985.1376
 10
7907949.4494
 20
-284985.1376
  0
LWPOLYLINE
  5
DB2
330
1F
100
AcDbEntity
  8
0
  6
Continuous
 62
     7
100
AcDbPolyline
 90
        2
 70
     0
 43
0.0
 10
7907939.6202
 20
-284986.9805
 10
7907940.1375
 20
-284986.9805
  0
LWPOLYLINE
  5
DB6
330
1F
100
AcDbEntity
  8
0
  6
Continuous
 62
     7
100
AcDbPolyline
 90
        2
 70
     0
 43
0.0
 10
7907943.2415
 20
-284986.9805
 10
7907943.7588
 20
-284986.9805
  0
LWPOLYLINE
  5
DBA
330
1F
100
AcDbEntity
  8
0
  6
Continuous
 62
     7
100
AcDbPolyline
 90
        2
 70
     0
 43
0.0
 10
7907946.8628
 20
-284986.9805
 10
7907947.3801
 20
-284986.9805
  0
LWPOLYLINE
  5
DBE
330
1F
100
AcDbEntity
  8
0
  6
Continuous
 62
     7
100
AcDbPolyline
 90
        2
 70
     0
 43
0.0
 10
7907941.1722
 20
-284988.8235
 10
7907941.6895
 20
-284988.8235
  0
LWPOLYLINE
  5
DC2
330
1F
100
AcDbEntity
  8
0
  6
Continuous
 62
     7
100
AcDbPolyline
 90
        2
 70
     0
 43
0.0
 10
7907944.7935
 20
-284988.8235
 10
7907945.3108
 20
-284988.8235
  0
LWPOLYLINE
  5
DC6
330
1F
100
AcDbEntity
  8
0
  6
Continuous
 62
     7
100
AcDbPolyline
 90
        2
 70
     0
 43
0.0
 10
7907948.4148
 20
-284988.8235
 10
7907948.9321
 20
-284988.8235
  0
LWPOLYLINE
  5
DCA
330
1F
100
AcDbEntity
  8
0
  6
Continuous
 62
     7
100
AcDbPolyline
 90
        2
 70
     0
 43
0.0
 10
7907939.1028
 20
-284990.6665
 10
7907939.6202
 20
-284990.6665
  0
LWPOLYLINE
  5
DCE
330
1F
100
AcDbEntity
  8
0
  6
Continuous
 62
     7
100
AcDbPolyline
 90
        2
 70
     0
 43
0.0
 10
7907942.7241
 20
-284990.6665
 10
7907943.2415
 20
-284990.6665
  0
LWPOLYLINE
  5
DD2
330
1F
100
AcDbEntity
  8
0
  6
Continuous
 62
     7
100
AcDbPolyline
 90
        2
 70
     0
 43
0.0
 10
7907946.3454
 20
-284990.6665
 10
7907946.8628
 20
-284990.6665
  0
LWPOLYLINE
  5
DD6
330
1F
100
AcDbEntity
  8
0
  6
Continuous
 62
     7
100
AcDbPolyline
 90
        2
 70
     0
 43
0.0
 10
7907949.9667
 20
-284990.6665
 10
7907950.4841
 20
-284990.6665
  0
LWPOLYLINE
  5
DDA
330
1F
100
AcDbEntity
  8
0
  6
Continuous
 62
     7
100
AcDbPolyline
 90
        2
 70
     0
 43
0.0
 10
7907940.6548
 20
-284992.5095
 10
7907941.1722
 20
-284992.5095
  0
LWPOLYLINE
  5
DDE
330
1F
100
AcDbEntity
  8
0
  6
Continuous
 62
     7
100
AcDbPolyline
 90
        2
 70
     0
 43
0.0
 10
7907944.2761
 20
-284992.5095
 10
7907944.7935
 20
-284992.5095
  0
LWPOLYLINE
  5
DE2
330
1F
100
AcDbEntity
  8
0
  6
Continuous
 62
     7
100
AcDbPolyline
 90
        2
 70
     0
 43
0.0
 10
7907947.8974
 20
-284992.5095
 10
7907948.4148
 20
-284992.5095
  0
LWPOLYLINE
  5
DE6
330
1F
100
AcDbEntity
  8
0
  6
Continuous
 62
     7
100
AcDbPolyline
 90
        2
 70
     0
 43
0.0
 10
7907938.5855
 20
-284994.3525
 10
7907939.1028
 20
-284994.3525
  0
LWPOLYLINE
  5
DEA
330
1F
100
AcDbEntity
  8
0
  6
Continuous
 62
     7
100
AcDbPolyline
 90
        2
 70
     0
 43
0.0
 10
7907942.2068
 20
-284994.3525
 10
7907942.7241
 20
-284994.3525
  0
LWPOLYLINE
  5
DEE
330
1F
100
AcDbEntity
  8
0
  6
Continuous
 62
     7
100
AcDbPolyline
 90
        2
 70
     0
 43
0.0
 10
7907951.5187
 20
-285265.5298
 10
7908182.2474
 20
-285265.5298
  0
LWPOLYLINE
  5
DF2
330
1F
100
AcDbEntity
  8
0
  6
Continuous
 62
     7
100
AcDbPolyline
 90
        4
 70
     0
 43
0.0
 10
7907939.1028
 20
-285375.5269
 10
7907708.3742
 20
-285375.5269
 10
7907708.3742
 20
-285265.5298
 10
7907939.1028
 20
-285265.5298
  0
LWPOLYLINE
  5
DF8
330
1F
100
AcDbEntity
  8
0
  6
Continuous
 62
     7
100
AcDbPolyline
 90
        3
 70
     0
 43
0.0
 10
7908182.2474
 20
-285265.5298
 10
7908182.2474
 20
-285375.5269
 10
7907951.5187
 20
-285375.5269
  0
LWPOLYLINE
  5
DFD
330
1F
100
AcDbEntity
  8
0
  6
Continuous
 62
     7
100
AcDbPolyline
 90
       37
 70
     0
 43
0.0
 10
7907699.0622
 20
-285373.6516
 10
7907699.5796
 20
-285373.4576
 10
7907699.0622
 20
-285373.2636
 10
7907699.5796
 20
-285373.0696
 10
7907700.0969
 20
-285372.8756
 10
7907700.0969
 20
-285372.6816
 10
7907700.6142
 20
-285372.5199
 10
7907700.6142
 20
-285372.3582
 10
7907701.1315
 20
-285372.1966
 10
7907701.1315
 20
-285372.0349
 10
7907701.6489
 20
-285371.9056
 10
7907701.6489
 20
-285371.7762
 10
7907702.1662
 20
-285371.6469
 10
7907703.2009
 20
-285371.5499
 10
7907703.2009
 20
-285371.4529
 10
7907703.7182
 20
-285371.3882
 10
7907704.2355
 20
-285371.3236
 10
7907704.2355
 20
-285371.2912
 10
7907704.7528
 20
-285371.2912
 10
7907705.2702
 20
-285371.2912
 10
7907705.2702
 20
-285371.3236
 10
7907705.7875
 20
-285371.3559
 10
7907706.3048
 20
-285371.4529
 10
7907706.3048
 20
-285371.5499
 10
7907706.3048
 20
-285371.6469
 10
7907706.3048
 20
-285371.7762
 10
7907706.8222
 20
-285371.8732
 10
7907706.8222
 20
-285372.0349
 10
7907707.3395
 20
-285372.1642
 10
7907707.3395
 20
-285372.3259
 10
7907707.8568
 20
-285372.5199
 10
7907707.8568
 20
-285372.6816
 10
7907707.8568
 20
-285372.8756
 10
7907708.3742
 20
-285373.0696
 10
7907708.3742
 20
-285373.2636
 10
7907708.8915
 20
-285373.4576
 10
7907708.8915
 20
-285373.6516
  0
LWPOLYLINE
  5
E24
330
1F
100
AcDbEntity
  8
0
  6
Continuous
 62
     7
100
AcDbPolyline
 90
       37
 70
     0
 43
0.0
 10
7908182.2474
 20
-285373.6516
 10
7908182.2474
 20
-285373.4576
 10
7908182.7647
 20
-285373.2636
 10
7908182.7647
 20
-285373.0696
 10
7908183.2821
 20
-285372.8756
 10
7908183.2821
 20
-285372.6816
 10
7908183.2821
 20
-285372.4876
 10
7908183.7994
 20
-285372.3259
 10
7908183.7994
 20
-285372.1642
 10
7908184.3167
 20
-285372.0026
 10
7908184.3167
 20
-285371.8732
 10
7908184.8341
 20
-285371.7439
 10
7908184.8341
 20
-285371.6469
 10
7908185.3514
 20
-285371.5499
 10
7908185.3514
 20
-285371.4529
 10
7908185.8687
 20
-285371.3882
 10
7908185.8687
 20
-285371.3559
 10
7908186.386
 20
-285371.3236
 10
7908186.386
 20
-285371.3236
 10
7908186.9034
 20
-285371.3236
 10
7908187.4207
 20
-285371.3559
 10
7908187.4207
 20
-285371.4206
 10
7908187.938
 20
-285371.4852
 10
7908187.938
 20
-285371.5499
 10
7908188.4554
 20
-285371.6469
 10
7908188.9727
 20
-285371.7439
 10
7908188.9727
 20
-285371.8732
 10
7908189.49
 20
-285372.0349
 10
7908189.49
 20
-285372.1642
 10
7908190.0073
 20
-285372.3259
 10
7908190.0073
 20
-285372.5199
 10
7908190.5247
 20
-285372.6816
 10
7908190.5247
 20
-285372.8756
 10
7908191.042
 20
-285373.0696
 10
7908191.042
 20
-285373.2636
 10
7908191.5593
 20
-285373.4576
 10
7908191.5593
 20
-285373.6516
  0
LWPOLYLINE
  5
E4B
330
1F
100
AcDbEntity
  8
0
  6
Continuous
 62
     7
100
AcDbPolyline
 90
        2
 70
     0
 43
0.0
 10
7907699.0622
 20
-285266.6615
 10
7907708.8915
 20
-285266.6615
  0
LWPOLYLINE
  5
E4F
330
1F
100
AcDbEntity
  8
0
  6
Continuous
 62
     7
100
AcDbPolyline
 90
        2
 70
     0
 43
0.0
 10
7908182.2474
 20
-285266.6615
 10
7908191.5593
 20
-285266.6615
  0
LWPOLYLINE
  5
E53
330
1F
100
AcDbEntity
  8
0
  6
Continuous
 62
     7
100
AcDbPolyline
 90
        3
 70
     0
 43
0.0
 10
7907699.0622
 20
-285265.5298
 10
7907699.0622
 20
-285375.5269
 10
7907528.861
 20
-285375.5269
  0
LWPOLYLINE
  5
E58
330
1F
100
AcDbEntity
  8
0
  6
Continuous
 62
     7
100
AcDbPolyline
 90
        2
 70
     0
 43
0.0
 10
7907528.861
 20
-285265.5298
 10
7907699.0622
 20
-285265.5298
  0
LWPOLYLINE
  5
E5C
330
1F
100
AcDbEntity
  8
0
  6
Continuous
 62
     7
100
AcDbPolyline
 90
        4
 70
     0
 43
0.0
 10
7908356.0699
 20
-285375.5269
 10
7908191.5593
 20
-285375.5269
 10
7908191.5593
 20
-285265.5298
 10
7908356.0699
 20
-285265.5298
  0
LWPOLYLINE
  5
E62
330
1F
100
AcDbEntity
  8
0
  6
Continuous
 62
     7
100
AcDbPolyline
 90
        2
 70
     0
 43
0.0
 10
7907951.5187
 20
-285296.5372
 10
7907951.5187
 20
-285265.5298
  0
LWPOLYLINE
  5
E66
330
1F
100
AcDbEntity
  8
0
  6
Continuous
 62
     7
100
AcDbPolyline
 90
        2
 70
     0
 43
0.0
 10
7907939.1028
 20
-285296.5372
 10
7907939.1028
 20
-285265.5298
  0
LWPOLYLINE
  5
E6A
330
1F
100
AcDbEntity
  8
0
  6
Continuous
 62
     7
100
AcDbPolyline
 90
        2
 70
     0
 43
0.0
 10
7907939.1028
 20
-285337.5679
 10
7907939.1028
 20
-285375.5269
  0
LWPOLYLINE
  5
E6E
330
1F
100
AcDbEntity
  8
0
  6
Continuous
 62
     7
100
AcDbPolyline
 90
        2
 70
     0
 43
0.0
 10
7907951.5187
 20
-285337.5679
 10
7907951.5187
 20
-285375.5269
  0
TEXT
  5
E72
330
1F
100
AcDbEntity
  8
0
 62
     7
100
AcDbText
 10
7907052.4011
 20
-284478.1552
 30
0.0
 40
30.0051
  1
Articulation Joint
 41
0.6596301671798162
 72
     5
 11
7907352.4519
 21
-284478.1552
 31
0.0
100
AcDbText
  0
TEXT
  5
E73
330
1F
100
AcDbEntity
  8
0
 62
     7
100
AcDbText
 10
7908014.6329
 20
-285487.9489
 30
0.0
 40
30.0051
  1
Sealant
 41
0.7488953782241162
 72
     5
 11
7908153.277
 21
-285487.9489
 31
0.0
100
AcDbText
  0
TEXT
  5
E74
330
1F
100
AcDbEntity
  8
0
 62
     7
100
AcDbText
 10
7906650.4366
 20
-285172.0873
 30
0.0
 40
30.0051
  1
Sealant
 41
0.7488953782241162
 72
     5
 11
7906789.0807
 21
-285172.0873
 31
0.0
100
AcDbText
  0
LWPOLYLINE
  5
E75
330
1F
100
AcDbEntity
  8
tie
  6
Continuous
 62
     7
100
AcDbPolyline
 90
        2
 70
     0
 43
2.0
 10
7906555.7654
 20
-284988.0152
 10
7906555.7654
 20
-285029.0782
  0
LWPOLYLINE
  5
E79
330
1F
100
AcDbEntity
  8
tie
  6
Continuous
 62
     7
100
AcDbPolyline
 90
        2
 70
     0
 43
2.0
 10
7906552.1441
 20
-284988.0152
 10
7906555.7654
 20
-284988.0152
  0
LWPOLYLINE
  5
E7D
330
1F
100
AcDbEntity
  8
tie
  6
Continuous
 62
     7
100
AcDbPolyline
 90
        2
 70
     0
 43
2.0
 10
7906552.1441
 20
-285029.0782
 10
7906555.7654
 20
-285029.0782
  0
LWPOLYLINE
  5
E81
330
1F
100
AcDbEntity
  8
tie
  6
Continuous
 62
     7
100
AcDbPolyline
 90
        2
 70
     0
 43
2.0
 10
7906555.7654
 20
-285001.3364
 10
7906552.1441
 20
-285001.3364
  0
LWPOLYLINE
  5
E85
330
1F
100
AcDbEntity
  8
tie
  6
Continuous
 62
     7
100
AcDbPolyline
 90
        2
 70
     0
 43
2.0
 10
7906555.7654
 20
-285015.7246
 10
7906552.1441
 20
-285015.7246
  0
LWPOLYLINE
  5
E89
330
1F
100
AcDbEntity
  8
tie
  6
Continuous
 62
     7
100
AcDbPolyline
 90
        2
 70
     0
 43
2.0
 10
7906552.1441
 20
-284988.0152
 10
7906403.6707
 20
-284988.0152
  0
LWPOLYLINE
  5
E8D
330
1F
100
AcDbEntity
  8
tie
  6
Continuous
 62
     7
100
AcDbPolyline
 90
        2
 70
     0
 43
2.0
 10
7906403.6707
 20
-284988.0152
 10
7906403.6707
 20
-285029.0782
  0
LWPOLYLINE
  5
E91
330
1F
100
AcDbEntity
  8
tie
  6
Continuous
 62
     7
100
AcDbPolyline
 90
        2
 70
     0
 43
2.0
 10
7906403.6707
 20
-285029.0782
 10
7906552.1441
 20
-285029.0782
  0
LWPOLYLINE
  5
E95
330
1F
100
AcDbEntity
  8
tie
  6
Continuous
 62
     7
100
AcDbPolyline
 90
        2
 70
     0
 43
2.0
 10
7906403.6707
 20
-285001.3364
 10
7906552.1441
 20
-285001.3364
  0
LWPOLYLINE
  5
E99
330
1F
100
AcDbEntity
  8
tie
  6
Continuous
 62
     7
100
AcDbPolyline
 90
        2
 70
     0
 43
2.0
 10
7906403.6707
 20
-285015.7246
 10
7906552.1441
 20
-285015.7246
  0
LWPOLYLINE
  5
E9D
330
1F
100
AcDbEntity
  8
tie
  6
Continuous
 62
     7
100
AcDbPolyline
 90
       38
 70
     0
 43
2.0
 10
7906432.6411
 20
-285014.0756
 10
7906433.6758
 20
-285014.5283
 10
7906434.7104
 20
-285014.787
 10
7906435.7451
 20
-285014.9163
 10
7906436.7797
 20
-285014.787
 10
7906437.8144
 20
-285014.4636
 10
7906438.8491
 20
-285013.9786
 10
7906439.8837
 20
-285013.3643
 10
7906440.9184
 20
-285012.5237
 10
7906441.953
 20
-285011.6183
 10
7906441.953
 20
-285010.616
 10
7906441.953
 20
-285009.549
 10
7906441.953
 20
-285008.4497
 10
7906441.953
 20
-285007.3504
 10
7906441.953
 20
-285006.251
 10
7906440.9184
 20
-285005.2811
 10
7906440.9184
 20
-285004.3757
 10
7906439.8837
 20
-285003.5997
 10
7906438.8491
 20
-285003.0177
 10
7906437.8144
 20
-285002.5651
 10
7906436.7797
 20
-285002.2741
 10
7906435.7451
 20
-285002.1771
 10
7906434.7104
 20
-285002.3064
 10
7906433.6758
 20
-285002.6297
 10
7906432.1238
 20
-285003.0824
 10
7906431.6064
 20
-285003.7291
 10
7906430.5718
 20
-285004.5697
 10
7906429.5371
 20
-285005.4751
 10
7906429.5371
 20
-285006.4774
 10
7906429.0198
 20
-285007.5444
 10
7906428.5025
 20
-285008.6437
 10
7906429.0198
 20
-285009.743
 10
7906429.5371
 20
-285010.8423
 10
7906429.5371
 20
-285011.8123
 10
7906430.5718
 20
-285012.7177
 10
7906431.6064
 20
-285013.4937
 10
7906432.6411
 20
-285014.0756
 10
7906432.6411
 20
-285014.0756
  0
LWPOLYLINE
  5
EC5
330
1F
100
AcDbEntity
  8
tie
  6
Continuous
 62
     7
100
AcDbPolyline
 90
       38
 70
     0
 43
2.0
 10
7906519.5524
 20
-285014.2696
 10
7906520.587
 20
-285014.7223
 10
7906521.6217
 20
-285014.981
 10
7906523.1737
 20
-285015.1103
 10
7906524.7256
 20
-285014.981
 10
7906525.7603
 20
-285014.6576
 10
7906526.795
 20
-285014.1726
 10
7906527.8296
 20
-285013.5583
 10
7906528.3469
 20
-285012.7177
 10
7906528.8643
 20
-285011.8123
 10
7906529.3816
 20
-285010.7777
 10
7906529.8989
 20
-285009.743
 10
7906529.8989
 20
-285008.6437
 10
7906529.8989
 20
-285007.5444
 10
7906529.3816
 20
-285006.445
 10
7906528.8643
 20
-285005.4751
 10
7906527.8296
 20
-285004.5697
 10
7906527.3123
 20
-285003.7937
 10
7906526.795
 20
-285003.2117
 10
7906525.243
 20
-285002.7591
 10
7906523.691
 20
-285002.4681
 10
7906522.6563
 20
-285002.3711
 10
7906521.6217
 20
-285002.5004
 10
7906520.587
 20
-285002.8237
 10
7906519.5524
 20
-285003.2764
 10
7906518.5177
 20
-285003.9231
 10
7906517.483
 20
-285004.7637
 10
7906517.483
 20
-285005.6691
 10
7906516.4484
 20
-285006.6714
 10
7906516.4484
 20
-285007.7384
 10
7906516.4484
 20
-285008.8377
 10
7906516.4484
 20
-285009.937
 10
7906516.4484
 20
-285011.0363
 10
7906517.483
 20
-285012.0063
 10
7906518.0004
 20
-285012.9117
 10
7906518.5177
 20
-285013.6876
 10
7906519.5524
 20
-285014.2696
 10
7906519.5524
 20
-285014.2696
  0
LWPOLYLINE
  5
EED
330
1F
100
AcDbEntity
  8
tie
  6
Continuous
 62
     7
100
AcDbPolyline
 90
        2
 70
     0
 43
2.0
 10
7906585.7705
 20
-285029.2722
 10
7906585.7705
 20
-284988.0475
  0
LWPOLYLINE
  5
EF1
330
1F
100
AcDbEntity
  8
tie
  6
Continuous
 62
     7
100
AcDbPolyline
 90
        2
 70
     0
 43
2.0
 10
7906590.9437
 20
-285029.2722
 10
7906586.8051
 20
-285029.2722
  0
LWPOLYLINE
  5
EF5
330
1F
100
AcDbEntity
  8
tie
  6
Continuous
 62
     7
100
AcDbPolyline
 90
        2
 70
     0
 43
2.0
 10
7906586.8051
 20
-285015.854
 10
7906590.9437
 20
-285015.854
  0
LWPOLYLINE
  5
EF9
330
1F
100
AcDbEntity
  8
tie
  6
Continuous
 62
     7
100
AcDbPolyline
 90
        2
 70
     0
 43
2.0
 10
7906586.8051
 20
-285001.4658
 10
7906590.9437
 20
-285001.4658
  0
LWPOLYLINE
  5
EFD
330
1F
100
AcDbEntity
  8
tie
  6
Continuous
 62
     7
100
AcDbPolyline
 90
        2
 70
     0
 43
2.0
 10
7906738.8998
 20
-285029.2722
 10
7906738.8998
 20
-284988.0475
  0
LWPOLYLINE
  5
F01
330
1F
100
AcDbEntity
  8
tie
  6
Continuous
 62
     7
100
AcDbPolyline
 90
        2
 70
     0
 43
2.0
 10
7906738.8998
 20
-284988.0475
 10
7906590.9437
 20
-284988.0475
  0
LWPOLYLINE
  5
F05
330
1F
100
AcDbEntity
  8
tie
  6
Continuous
 62
     7
100
AcDbPolyline
 90
       38
 70
     0
 43
2.0
 10
7906709.9294
 20
-285003.0824
 10
7906708.8947
 20
-285002.6297
 10
7906707.8601
 20
-285002.3711
 10
7906706.8254
 20
-285002.2741
 10
7906705.7908
 20
-285002.4034
 10
7906704.7561
 20
-285002.6944
 10
7906703.7214
 20
-285003.2117
 10
7906702.6868
 20
-285003.8584
 10
7906701.6521
 20
-285004.6344
 10
7906701.1348
 20
-285005.5397
 10
7906700.6175
 20
-285006.5744
 10
7906700.6175
 20
-285007.6737
 10
7906700.6175
 20
-285008.773
 10
7906700.6175
 20
-285009.8723
 10
7906700.6175
 20
-285010.907
 10
7906701.6521
 20
-285011.9417
 10
7906701.6521
 20
-285012.8147
 10
7906702.6868
 20
-285013.5907
 10
7906703.7214
 20
-285014.205
 10
7906704.7561
 20
-285014.6576
 10
7906705.7908
 20
-285014.9163
 10
7906706.8254
 20
-285015.0456
 10
7906707.8601
 20
-285014.9163
 10
7906709.4121
 20
-285014.593
 10
7906710.4467
 20
-285014.0756
 10
7906710.964
 20
-285013.4613
 10
7906711.9987
 20
-285012.653
 10
7906713.0334
 20
-285011.7477
 10
7906713.0334
 20
-285010.713
 10
7906714.068
 20
-285009.646
 10
7906714.068
 20
-285008.5144
 10
7906713.5507
 20
-285007.415
 10
7906713.0334
 20
-285006.3804
 10
7906713.0334
 20
-285005.3457
 10
7906711.9987
 20
-285004.4727
 10
7906710.964
 20
-285003.7291
 10
7906709.9294
 20
-285003.0824
 10
7906709.9294
 20
-285003.0824
  0
LWPOLYLINE
  5
F2D
330
1F
100
AcDbEntity
  8
tie
  6
Continuous
 62
     7
100
AcDbPolyline
 90
       38
 70
     0
 43
2.0
 10
7906623.0181
 20
-285002.8884
 10
7906621.9835
 20
-285002.4357
 10
7906620.9488
 20
-285002.1771
 10
7906619.3968
 20
-285002.0801
 10
7906617.8448
 20
-285002.2094
 10
7906616.8102
 20
-285002.5004
 10
7906615.7755
 20
-285003.0177
 10
7906614.7409
 20
-285003.6644
 10
7906614.7409
 20
-285004.4404
 10
7906613.7062
 20
-285005.3457
 10
7906613.1889
 20
-285006.3804
 10
7906612.6716
 20
-285007.4797
 10
7906612.6716
 20
-285008.579
 10
7906612.6716
 20
-285009.6784
 10
7906613.7062
 20
-285010.713
 10
7906613.7062
 20
-285011.7477
 10
7906614.7409
 20
-285012.6207
 10
7906615.7755
 20
-285013.3967
 10
7906616.2929
 20
-285014.011
 10
7906617.3275
 20
-285014.4636
 10
7906618.8795
 20
-285014.7223
 10
7906619.9142
 20
-285014.8516
 10
7906620.9488
 20
-285014.7223
 10
7906621.9835
 20
-285014.399
 10
7906623.0181
 20
-285013.8816
 10
7906624.0528
 20
-285013.2673
 10
7906625.0875
 20
-285012.459
 10
7906625.0875
 20
-285011.5537
 10
7906626.1221
 20
-285010.519
 10
7906626.1221
 20
-285009.452
 10
7906626.1221
 20
-285008.3204
 10
7906626.1221
 20
-285007.221
 10
7906626.1221
 20
-285006.1864
 10
7906625.0875
 20
-285005.1517
 10
7906624.5701
 20
-285004.3111
 10
7906624.0528
 20
-285003.5351
 10
7906623.0181
 20
-285002.8884
 10
7906623.0181
 20
-285002.8884
  0
LWPOLYLINE
  5
F55
330
1F
100
AcDbEntity
  8
tie
  6
Continuous
 62
     7
100
AcDbPolyline
 90
        2
 70
     0
 43
2.0
 10
7906738.8998
 20
-285029.2722
 10
7906585.7705
 20
-285029.2722
  0
LWPOLYLINE
  5
F59
330
1F
100
AcDbEntity
  8
tie
  6
Continuous
 62
     7
100
AcDbPolyline
 90
        2
 70
     0
 43
2.0
 10
7906738.8998
 20
-285015.854
 10
7906585.7705
 20
-285015.854
  0
LWPOLYLINE
  5
F5D
330
1F
100
AcDbEntity
  8
tie
  6
Continuous
 62
     7
100
AcDbPolyline
 90
        2
 70
     0
 43
2.0
 10
7906738.8998
 20
-285001.4658
 10
7906585.7705
 20
-285001.4658
  0
LWPOLYLINE
  5
F61
330
1F
100
AcDbEntity
  8
tie
  6
Continuous
 62
     7
100
AcDbPolyline
 90
        2
 70
     0
 43
2.0
 10
7906590.9437
 20
-284988.0475
 10
7906585.7705
 20
-284988.0475
  0
LWPOLYLINE
  5
F65
330
1F
100
AcDbEntity
  8
tie
  6
Continuous
 62
     7
100
AcDbPolyline
 90
        2
 70
     0
 43
2.0
 10
7906555.7654
 20
-284992.1215
 10
7906585.7705
 20
-284992.1215
  0
LWPOLYLINE
  5
F69
330
1F
100
AcDbEntity
  8
tie
  6
Continuous
 62
     7
100
AcDbPolyline
 90
        2
 70
     0
 43
2.0
 10
7906555.7654
 20
-284997.2625
 10
7906585.7705
 20
-284997.2625
  0
LWPOLYLINE
  5
F6D
330
1F
100
AcDbEntity
  8
tie
  6
Continuous
 62
     7
100
AcDbPolyline
 90
        2
 70
     0
 43
2.0
 10
7906555.7654
 20
-285019.8309
 10
7906585.7705
 20
-285019.8309
  0
LWPOLYLINE
  5
F71
330
1F
100
AcDbEntity
  8
tie
  6
Continuous
 62
     7
100
AcDbPolyline
 90
        2
 70
     0
 43
2.0
 10
7906555.7654
 20
-285024.9396
 10
7906585.7705
 20
-285024.9396
  0
LWPOLYLINE
  5
F75
330
1F
100
AcDbEntity
  8
tie
  6
Continuous
 62
     7
100
AcDbPolyline
 90
       32
 70
     0
 43
2.0
 10
7907802.528
 20
-284776.4924
 10
7907813.9092
 20
-284776.4924
 10
7907821.1518
 20
-284769.4761
 10
7907828.3945
 20
-284776.4924
 10
7907836.1544
 20
-284769.4761
 10
7907843.9143
 20
-284776.4924
 10
7907851.1569
 20
-284769.4761
 10
7907858.9169
 20
-284776.4924
 10
7907866.6768
 20
-284769.4761
 10
7907873.9194
 20
-284776.4924
 10
7907881.162
 20
-284769.4761
 10
7907889.4393
 20
-284776.4924
 10
7907896.6819
 20
-284769.4761
 10
7907903.9245
 20
-284776.4924
 10
7907937.0335
 20
-284776.4924
 10
7907944.2761
 20
-284728.4778
 10
7907951.5187
 20
-284776.4924
 10
7907984.1105
 20
-284776.4924
 10
7907991.8704
 20
-284769.4761
 10
7907999.113
 20
-284776.4924
 10
7908006.8729
 20
-284769.4761
 10
7908014.6329
 20
-284776.4924
 10
7908021.8755
 20
-284769.4761
 10
7908029.1181
 20
-284776.4924
 10
7908037.3953
 20
-284769.4761
 10
7908038.43
 20
-284770.4784
 10
7908044.6379
 20
-284776.4924
 10
7908051.8805
 20
-284769.4761
 10
7908060.1578
 20
-284776.4924
 10
7908067.4004
 20
-284769.4761
 10
7908074.643
 20
-284776.4924
 10
7908086.0242
 20
-284776.4924
  0
LWPOLYLINE
  5
F97
330
1F
100
AcDbEntity
  8
tie
  6
Continuous
 62
     7
100
AcDbPolyline
 90
        3
 70
     0
 43
0.0
 10
7908078.2643
 20
-285024.4869
 10
7908044.6379
 20
-285024.4869
 10
7907955.14
 20
-284924.5131
  0
LWPOLYLINE
  5
F9C
330
1F
100
AcDbEntity
  8
tie
  6
Continuous
 62
     7
100
AcDbPolyline
 90
        4
 70
     0
 43
0.0
 10
7907968.0733
 20
-284946.3379
 10
7907955.14
 20
-284924.5131
 10
7907975.3159
 20
-284939.7096
 10
7907968.0733
 20
-284946.3379
  0
LWPOLYLINE
  5
FA2
330
1F
100
AcDbEntity
  8
tie
  6
Continuous
 62
     7
100
AcDbPolyline
 90
        2
 70
     0
 43
2.0
 10
7907926.6869
 20
-285296.5372
 10
7907929.7909
 20
-285296.5372
  0
LWPOLYLINE
  5
FA6
330
1F
100
AcDbEntity
  8
tie
  6
Continuous
 62
     7
100
AcDbPolyline
 90
        2
 70
     0
 43
2.0
 10
7907926.6869
 20
-285337.5679
 10
7907929.7909
 20
-285337.5679
  0
LWPOLYLINE
  5
FAA
330
1F
100
AcDbEntity
  8
tie
  6
Continuous
 62
     7
100
AcDbPolyline
 90
        2
 70
     0
 43
3.0
 10
7907945.3108
 20
-285336.5009
 10
7907945.3108
 20
-285295.3086
  0
LWPOLYLINE
  5
FAE
330
1F
100
AcDbEntity
  8
tie
  6
Continuous
 62
     7
100
AcDbPolyline
 90
        2
 70
     0
 43
2.0
 10
7907964.9693
 20
-285337.7295
 10
7907961.8653
 20
-285337.7295
  0
LWPOLYLINE
  5
FB2
330
1F
100
AcDbEntity
  8
tie
  6
Continuous
 62
     7
100
AcDbPolyline
 90
        2
 70
     0
 43
2.0
 10
7908113.96
 20
-285337.7295
 10
7908113.96
 20
-285296.5372
  0
LWPOLYLINE
  5
FB6
330
1F
100
AcDbEntity
  8
filler
  6
Continuous
 62
     7
100
AcDbPolyline
 90
        2
 70
     0
 43
0.0
 10
7906570.7679
 20
-284989.4702
 10
7906570.7679
 20
-284985.7842
  0
LWPOLYLINE
  5
FBA
330
1F
100
AcDbEntity
  8
filler
  6
Continuous
 62
     7
100
AcDbPolyline
 90
        2
 70
     0
 43
0.0
 10
7906570.7679
 20
-284982.0983
 10
7906570.7679
 20
-284978.4123
  0
LWPOLYLINE
  5
FBE
330
1F
100
AcDbEntity
  8
filler
  6
Continuous
 62
     7
100
AcDbPolyline
 90
        2
 70
     0
 43
0.0
 10
7906570.7679
 20
-284974.7263
 10
7906570.7679
 20
-284971.0403
  0
LWPOLYLINE
  5
FC2
330
1F
100
AcDbEntity
  8
filler
  6
Continuous
 62
     7
100
AcDbPolyline
 90
        2
 70
     0
 43
0.0
 10
7906570.7679
 20
-284967.3544
 10
7906570.7679
 20
-284963.6684
  0
LWPOLYLINE
  5
FC6
330
1F
100
AcDbEntity
  8
filler
  6
Continuous
 62
     7
100
AcDbPolyline
 90
        2
 70
     0
 43
0.0
 10
7906570.7679
 20
-284959.9824
 10
7906570.7679
 20
-284957.1695
  0
LWPOLYLINE
  5
FCA
330
1F
100
AcDbEntity
  8
filler
  6
Continuous
 62
     7
100
AcDbPolyline
 90
        2
 70
     0
 43
0.0
 10
7906567.1466
 20
-284992.1538
 10
7906567.1466
 20
-284989.4702
  0
LWPOLYLINE
  5
FCE
330
1F
100
AcDbEntity
  8
filler
  6
Continuous
 62
     7
100
AcDbPolyline
 90
        2
 70
     0
 43
0.0
 10
7906567.1466
 20
-284985.7842
 10
7906567.1466
 20
-284982.0983
  0
LWPOLYLINE
  5
FD2
330
1F
100
AcDbEntity
  8
filler
  6
Continuous
 62
     7
100
AcDbPolyline
 90
        2
 70
     0
 43
0.0
 10
7906567.1466
 20
-284978.4123
 10
7906567.1466
 20
-284974.7263
  0
LWPOLYLINE
  5
FD6
330
1F
100
AcDbEntity
  8
filler
  6
Continuous
 62
     7
100
AcDbPolyline
 90
        2
 70
     0
 43
0.0
 10
7906567.1466
 20
-284971.0403
 10
7906567.1466
 20
-284967.3544
  0
LWPOLYLINE
  5
FDA
330
1F
100
AcDbEntity
  8
filler
  6
Continuous
 62
     7
100
AcDbPolyline
 90
        2
 70
     0
 43
0.0
 10
7906567.1466
 20
-284963.6684
 10
7906567.1466
 20
-284959.9824
  0
LWPOLYLINE
  5
FDE
330
1F
100
AcDbEntity
  8
filler
  6
Continuous
 62
     7
100
AcDbPolyline
 90
        2
 70
     0
 43
0.0
 10
7906574.3892
 20
-284992.1538
 10
7906574.3892
 20
-284989.4379
  0
LWPOLYLINE
  5
FE2
330
1F
100
AcDbEntity
  8
filler
  6
Continuous
 62
     7
100
AcDbPolyline
 90
        2
 70
     0
 43
0.0
 10
7906574.3892
 20
-284985.7519
 10
7906574.3892
 20
-284982.0659
  0
LWPOLYLINE
  5
FE6
330
1F
100
AcDbEntity
  8
filler
  6
Continuous
 62
     7
100
AcDbPolyline
 90
        2
 70
     0
 43
0.0
 10
7906574.3892
 20
-284978.38
 10
7906574.3892
 20
-284974.694
  0
LWPOLYLINE
  5
FEA
330
1F
100
AcDbEntity
  8
filler
  6
Continuous
 62
     7
100
AcDbPolyline
 90
        2
 70
     0
 43
0.0
 10
7906574.3892
 20
-284971.008
 10
7906574.3892
 20
-284967.322
  0
LWPOLYLINE
  5
FEE
330
1F
100
AcDbEntity
  8
filler
  6
Continuous
 62
     7
100
AcDbPolyline
 90
        2
 70
     0
 43
0.0
 10
7906574.3892
 20
-284963.6361
 10
7906574.3892
 20
-284959.9501
  0
LWPOLYLINE
  5
FF2
330
1F
100
AcDbEntity
  8
filler
  6
Continuous
 62
     7
100
AcDbPolyline
 90
        2
 70
     0
 43
0.0
 10
7906564.0426
 20
-285008.1264
 10
7906567.1466
 20
-285008.1264
  0
LWPOLYLINE
  5
FF6
330
1F
100
AcDbEntity
  8
filler
  6
Continuous
 62
     7
100
AcDbPolyline
 90
        2
 70
     0
 43
0.0
 10
7906570.7679
 20
-285008.1264
 10
7906574.3892
 20
-285008.1264
  0
LWPOLYLINE
  5
FFA
330
1F
100
AcDbEntity
  8
filler
  6
Continuous
 62
     7
100
AcDbPolyline
 90
        2
 70
     0
 43
0.0
 10
7906567.1466
 20
-285004.4404
 10
7906570.7679
 20
-285004.4404
  0
LWPOLYLINE
  5
FFE
330
1F
100
AcDbEntity
  8
filler
  6
Continuous
 62
     7
100
AcDbPolyline
 90
        2
 70
     0
 43
0.0
 10
7906574.3892
 20
-285004.4404
 10
7906577.4932
 20
-285004.4404
  0
LWPOLYLINE
  5
1002
330
1F
100
AcDbEntity
  8
filler
  6
Continuous
 62
     7
100
AcDbPolyline
 90
        2
 70
     0
 43
0.0
 10
7906564.0426
 20
-285000.7544
 10
7906567.1466
 20
-285000.7544
  0
LWPOLYLINE
  5
1006
330
1F
100
AcDbEntity
  8
filler
  6
Continuous
 62
     7
100
AcDbPolyline
 90
        2
 70
     0
 43
0.0
 10
7906570.7679
 20
-285000.7544
 10
7906574.3892
 20
-285000.7544
  0
LWPOLYLINE
  5
100A
330
1F
100
AcDbEntity
  8
filler
  6
Continuous
 62
     7
100
AcDbPolyline
 90
        2
 70
     0
 43
0.0
 10
7906567.1466
 20
-285011.8123
 10
7906570.7679
 20
-285011.8123
  0
LWPOLYLINE
  5
100E
330
1F
100
AcDbEntity
  8
filler
  6
Continuous
 62
     7
100
AcDbPolyline
 90
        2
 70
     0
 43
0.0
 10
7906574.3892
 20
-285011.8123
 10
7906577.4932
 20
-285011.8123
  0
LWPOLYLINE
  5
1012
330
1F
100
AcDbEntity
  8
filler
  6
Continuous
 62
     7
100
AcDbPolyline
 90
        2
 70
     0
 43
0.0
 10
7906564.0426
 20
-285015.4983
 10
7906567.1466
 20
-285015.4983
  0
LWPOLYLINE
  5
1016
330
1F
100
AcDbEntity
  8
filler
  6
Continuous
 62
     7
100
AcDbPolyline
 90
        2
 70
     0
 43
0.0
 10
7906570.7679
 20
-285015.4983
 10
7906574.3892
 20
-285015.4983
  0
LWPOLYLINE
  5
101A
330
1F
100
AcDbEntity
  8
filler
  6
Continuous
 62
     7
100
AcDbPolyline
 90
        2
 70
     0
 43
0.0
 10
7906564.0426
 20
-285036.1268
 10
7906567.1466
 20
-285036.1268
  0
LWPOLYLINE
  5
101E
330
1F
100
AcDbEntity
  8
filler
  6
Continuous
 62
     7
100
AcDbPolyline
 90
        2
 70
     0
 43
0.0
 10
7906570.7679
 20
-285036.1268
 10
7906574.3892
 20
-285036.1268
  0
LWPOLYLINE
  5
1022
330
1F
100
AcDbEntity
  8
filler
  6
Continuous
 62
     7
100
AcDbPolyline
 90
        2
 70
     0
 43
0.0
 10
7906567.1466
 20
-285032.4408
 10
7906570.7679
 20
-285032.4408
  0
LWPOLYLINE
  5
1026
330
1F
100
AcDbEntity
  8
filler
  6
Continuous
 62
     7
100
AcDbPolyline
 90
        2
 70
     0
 43
0.0
 10
7906574.3892
 20
-285032.4408
 10
7906577.4932
 20
-285032.4408
  0
LWPOLYLINE
  5
102A
330
1F
100
AcDbEntity
  8
filler
  6
Continuous
 62
     7
100
AcDbPolyline
 90
        2
 70
     0
 43
0.0
 10
7906564.0426
 20
-285028.7549
 10
7906567.1466
 20
-285028.7549
  0
LWPOLYLINE
  5
102E
330
1F
100
AcDbEntity
  8
filler
  6
Continuous
 62
     7
100
AcDbPolyline
 90
        2
 70
     0
 43
0.0
 10
7906570.7679
 20
-285028.7549
 10
7906574.3892
 20
-285028.7549
  0
LWPOLYLINE
  5
1032
330
1F
100
AcDbEntity
  8
filler
  6
Continuous
 62
     7
100
AcDbPolyline
 90
        2
 70
     0
 43
0.0
 10
7906567.1466
 20
-285039.8128
 10
7906570.7679
 20
-285039.8128
  0
LWPOLYLINE
  5
1036
330
1F
100
AcDbEntity
  8
filler
  6
Continuous
 62
     7
100
AcDbPolyline
 90
        2
 70
     0
 43
0.0
 10
7906574.3892
 20
-285039.8128
 10
7906577.4932
 20
-285039.8128
  0
LWPOLYLINE
  5
103A
330
1F
100
AcDbEntity
  8
filler
  6
Continuous
 62
     7
100
AcDbPolyline
 90
        2
 70
     0
 43
0.0
 10
7906564.0426
 20
-285043.4987
 10
7906567.1466
 20
-285043.4987
  0
LWPOLYLINE
  5
103E
330
1F
100
AcDbEntity
  8
filler
  6
Continuous
 62
     7
100
AcDbPolyline
 90
        2
 70
     0
 43
0.0
 10
7906570.7679
 20
-285043.4987
 10
7906574.3892
 20
-285043.4987
  0
LWPOLYLINE
  5
1042
330
1F
100
AcDbEntity
  8
filler
  6
Continuous
 62
     7
100
AcDbPolyline
 90
        2
 70
     0
 43
0.0
 10
7906567.1466
 20
-285054.6536
 10
7906567.6639
 20
-285054.6536
  0
LWPOLYLINE
  5
1046
330
1F
100
AcDbEntity
  8
filler
  6
Continuous
 62
     7
100
AcDbPolyline
 90
        2
 70
     0
 43
0.0
 10
7906570.7679
 20
-285054.6536
 10
7906571.2852
 20
-285054.6536
  0
LWPOLYLINE
  5
104A
330
1F
100
AcDbEntity
  8
filler
  6
Continuous
 62
     7
100
AcDbPolyline
 90
        2
 70
     0
 43
0.0
 10
7906574.3892
 20
-285054.6536
 10
7906574.9065
 20
-285054.6536
  0
LWPOLYLINE
  5
104E
330
1F
100
AcDbEntity
  8
filler
  6
Continuous
 62
     7
100
AcDbPolyline
 90
        2
 70
     0
 43
0.0
 10
7906565.5946
 20
-285052.8106
 10
7906566.112
 20
-285052.8106
  0
LWPOLYLINE
  5
1052
330
1F
100
AcDbEntity
  8
filler
  6
Continuous
 62
     7
100
AcDbPolyline
 90
        2
 70
     0
 43
0.0
 10
7906569.2159
 20
-285052.8106
 10
7906569.7333
 20
-285052.8106
  0
LWPOLYLINE
  5
1056
330
1F
100
AcDbEntity
  8
filler
  6
Continuous
 62
     7
100
AcDbPolyline
 90
        2
 70
     0
 43
0.0
 10
7906572.8372
 20
-285052.8106
 10
7906573.3546
 20
-285052.8106
  0
LWPOLYLINE
  5
105A
330
1F
100
AcDbEntity
  8
filler
  6
Continuous
 62
     7
100
AcDbPolyline
 90
        2
 70
     0
 43
0.0
 10
7906576.4585
 20
-285052.8106
 10
7906576.9759
 20
-285052.8106
  0
LWPOLYLINE
  5
105E
330
1F
100
AcDbEntity
  8
filler
  6
Continuous
 62
     7
100
AcDbPolyline
 90
        2
 70
     0
 43
0.0
 10
7906564.0426
 20
-285050.9677
 10
7906564.0426
 20
-285050.9677
  0
LWPOLYLINE
  5
1062
330
1F
100
AcDbEntity
  8
filler
  6
Continuous
 62
     7
100
AcDbPolyline
 90
        2
 70
     0
 43
0.0
 10
7906567.1466
 20
-285050.9677
 10
7906567.6639
 20
-285050.9677
  0
LWPOLYLINE
  5
1066
330
1F
100
AcDbEntity
  8
filler
  6
Continuous
 62
     7
100
AcDbPolyline
 90
        2
 70
     0
 43
0.0
 10
7906570.7679
 20
-285050.9677
 10
7906571.2852
 20
-285050.9677
  0
LWPOLYLINE
  5
106A
330
1F
100
AcDbEntity
  8
filler
  6
Continuous
 62
     7
100
AcDbPolyline
 90
        2
 70
     0
 43
0.0
 10
7906574.3892
 20
-285050.9677
 10
7906574.9065
 20
-285050.9677
  0
LWPOLYLINE
  5
106E
330
1F
100
AcDbEntity
  8
filler
  6
Continuous
 62
     7
100
AcDbPolyline
 90
        2
 70
     0
 43
0.0
 10
7906566.112
 20
-285049.1247
 10
7906566.6293
 20
-285049.1247
  0
LWPOLYLINE
  5
1072
330
1F
100
AcDbEntity
  8
filler
  6
Continuous
 62
     7
100
AcDbPolyline
 90
        2
 70
     0
 43
0.0
 10
7906569.7333
 20
-285049.1247
 10
7906570.2506
 20
-285049.1247
  0
LWPOLYLINE
  5
1076
330
1F
100
AcDbEntity
  8
filler
  6
Continuous
 62
     7
100
AcDbPolyline
 90
        2
 70
     0
 43
0.0
 10
7906573.3546
 20
-285049.1247
 10
7906573.8719
 20
-285049.1247
  0
LWPOLYLINE
  5
107A
330
1F
100
AcDbEntity
  8
filler
  6
Continuous
 62
     7
100
AcDbPolyline
 90
        2
 70
     0
 43
0.0
 10
7906576.9759
 20
-285049.1247
 10
7906577.4932
 20
-285049.1247
  0
LWPOLYLINE
  5
107E
330
1F
100
AcDbEntity
  8
filler
  6
Continuous
 62
     7
100
AcDbPolyline
 90
        2
 70
     0
 43
0.0
 10
7906564.0426
 20
-285047.2817
 10
7906564.56
 20
-285047.2817
  0
LWPOLYLINE
  5
1082
330
1F
100
AcDbEntity
  8
filler
  6
Continuous
 62
     7
100
AcDbPolyline
 90
        2
 70
     0
 43
0.0
 10
7906567.6639
 20
-285047.2817
 10
7906568.1813
 20
-285047.2817
  0
LWPOLYLINE
  5
1086
330
1F
100
AcDbEntity
  8
filler
  6
Continuous
 62
     7
100
AcDbPolyline
 90
        2
 70
     0
 43
0.0
 10
7906571.2852
 20
-285047.2817
 10
7906571.8026
 20
-285047.2817
  0
LWPOLYLINE
  5
108A
330
1F
100
AcDbEntity
  8
filler
  6
Continuous
 62
     7
100
AcDbPolyline
 90
        2
 70
     0
 43
0.0
 10
7906574.9065
 20
-285047.2817
 10
7906575.4239
 20
-285047.2817
  0
LWPOLYLINE
  5
108E
330
1F
100
AcDbEntity
  8
filler
  6
Continuous
 62
     7
100
AcDbPolyline
 90
        2
 70
     0
 43
0.0
 10
7906565.0773
 20
-285056.4966
 10
7906565.5946
 20
-285056.4966
  0
LWPOLYLINE
  5
1092
330
1F
100
AcDbEntity
  8
filler
  6
Continuous
 62
     7
100
AcDbPolyline
 90
        2
 70
     0
 43
0.0
 10
7906568.6986
 20
-285056.4966
 10
7906569.2159
 20
-285056.4966
  0
LWPOLYLINE
  5
1096
330
1F
100
AcDbEntity
  8
filler
  6
Continuous
 62
     7
100
AcDbPolyline
 90
        2
 70
     0
 43
0.0
 10
7906572.3199
 20
-285056.4966
 10
7906572.8372
 20
-285056.4966
  0
LWPOLYLINE
  5
109A
330
1F
100
AcDbEntity
  8
filler
  6
Continuous
 62
     7
100
AcDbPolyline
 90
        2
 70
     0
 43
0.0
 10
7906575.9412
 20
-285056.4966
 10
7906576.4585
 20
-285056.4966
  0
LWPOLYLINE
  5
109E
330
1F
100
AcDbEntity
  8
filler
  6
Continuous
 62
     7
100
AcDbPolyline
 90
        2
 70
     0
 43
0.0
 10
7906566.6293
 20
-285058.3396
 10
7906567.1466
 20
-285058.3396
  0
LWPOLYLINE
  5
10A2
330
1F
100
AcDbEntity
  8
filler
  6
Continuous
 62
     7
100
AcDbPolyline
 90
        2
 70
     0
 43
0.0
 10
7906570.2506
 20
-285058.3396
 10
7906570.7679
 20
-285058.3396
  0
LWPOLYLINE
  5
10A6
330
1F
100
AcDbEntity
  8
filler
  6
Continuous
 62
     7
100
AcDbPolyline
 90
        2
 70
     0
 43
0.0
 10
7906573.8719
 20
-285058.3396
 10
7906574.3892
 20
-285058.3396
  0
LWPOLYLINE
  5
10AA
330
1F
100
AcDbEntity
  8
filler
  6
Continuous
 62
     7
100
AcDbPolyline
 90
        2
 70
     0
 43
0.0
 10
7906564.56
 20
-285060.1826
 10
7906565.0773
 20
-285060.1826
  0
LWPOLYLINE
  5
10AE
330
1F
100
AcDbEntity
  8
filler
  6
Continuous
 62
     7
100
AcDbPolyline
 90
        2
 70
     0
 43
0.0
 10
7906568.1813
 20
-285060.1826
 10
7906568.6986
 20
-285060.1826
  0
LWPOLYLINE
  5
10B2
330
1F
100
AcDbEntity
  8
filler
  6
Continuous
 62
     7
100
AcDbPolyline
 90
        2
 70
     0
 43
0.0
 10
7906571.8026
 20
-285060.1826
 10
7906572.3199
 20
-285060.1826
  0
LWPOLYLINE
  5
10B6
330
1F
100
AcDbEntity
  8
filler
  6
Continuous
 62
     7
100
AcDbPolyline
 90
        2
 70
     0
 43
0.0
 10
7906575.4239
 20
-285060.1826
 10
7906575.9412
 20
-285060.1826
  0
LWPOLYLINE
  5
10BA
330
1F
100
AcDbEntity
  8
filler
  6
Continuous
 62
     7
100
AcDbPolyline
 90
        2
 70
     0
 43
0.0
 10
7906577.4932
 20
-285062.0256
 10
7906577.4932
 20
-285062.0256
  0
LWPOLYLINE
  5
10BE
330
1F
100
AcDbEntity
  8
filler
  6
Continuous
 62
     7
100
AcDbPolyline
 90
        2
 70
     0
 43
0.0
 10
7906564.0426
 20
-285046.15
 10
7906577.4932
 20
-285046.15
  0
LWPOLYLINE
  5
10C2
330
1F
100
AcDbEntity
  8
filler
  6
Continuous
 62
     7
100
AcDbPolyline
 90
       37
 70
     0
 43
0.0
 10
7906564.0426
 20
-285063.1572
 10
7906564.56
 20
-285062.9632
 10
7906564.0426
 20
-285062.7692
 10
7906564.56
 20
-285062.6076
 10
7906565.0773
 20
-285062.4136
 10
7906565.0773
 20
-285062.2196
 10
7906565.5946
 20
-285062.0579
 10
7906565.5946
 20
-285061.8962
 10
7906566.112
 20
-285061.7346
 10
7906566.112
 20
-285061.5729
 10
7906566.6293
 20
-285061.4112
 10
7906566.6293
 20
-285061.2819
 10
7906567.1466
 20
-285061.1526
 10
7906568.1813
 20
-285060.9262
 10
7906568.6986
 20
-285060.7646
 10
7906569.2159
 20
-285060.6029
 10
7906569.7333
 20
-285060.5059
 10
7906570.2506
 20
-285060.4412
 10
7906571.2852
 20
-285060.4412
 10
7906571.2852
 20
-285060.4412
 10
7906571.8026
 20
-285060.5059
 10
7906572.8372
 20
-285060.6029
 10
7906573.3546
 20
-285060.7322
 10
7906573.8719
 20
-285060.9262
 10
7906574.3892
 20
-285061.1526
 10
7906574.9065
 20
-285061.2819
 10
7906574.9065
 20
-285061.4112
 10
7906575.4239
 20
-285061.5729
 10
7906575.4239
 20
-285061.7346
 10
7906575.9412
 20
-285061.8962
 10
7906575.9412
 20
-285062.0579
 10
7906576.4585
 20
-285062.2196
 10
7906576.4585
 20
-285062.4136
 10
7906576.9759
 20
-285062.6076
 10
7906576.9759
 20
-285062.7692
 10
7906577.4932
 20
-285062.9632
 10
7906577.4932
 20
-285063.1572
  0
LWPOLYLINE
  5
10E9
330
1F
100
AcDbEntity
  8
filler
  6
Continuous
 62
     7
100
AcDbPolyline
 90
        2
 70
     0
 43
0.0
 10
7907939.1028
 20
-285346.6535
 10
7907941.6895
 20
-285346.6535
  0
LWPOLYLINE
  5
10ED
330
1F
100
AcDbEntity
  8
filler
  6
Continuous
 62
     7
100
AcDbPolyline
 90
        2
 70
     0
 43
0.0
 10
7907945.3108
 20
-285346.6535
 10
7907948.9321
 20
-285346.6535
  0
LWPOLYLINE
  5
10F1
330
1F
100
AcDbEntity
  8
filler
  6
Continuous
 62
     7
100
AcDbPolyline
 90
        2
 70
     0
 43
0.0
 10
7907941.6895
 20
-285342.9675
 10
7907945.3108
 20
-285342.9675
  0
LWPOLYLINE
  5
10F5
330
1F
100
AcDbEntity
  8
filler
  6
Continuous
 62
     7
100
AcDbPolyline
 90
        2
 70
     0
 43
0.0
 10
7907948.9321
 20
-285342.9675
 10
7907951.5187
 20
-285342.9675
  0
LWPOLYLINE
  5
10F9
330
1F
100
AcDbEntity
  8
filler
  6
Continuous
 62
     7
100
AcDbPolyline
 90
        2
 70
     0
 43
0.0
 10
7907939.1028
 20
-285339.2815
 10
7907941.6895
 20
-285339.2815
  0
LWPOLYLINE
  5
10FD
330
1F
100
AcDbEntity
  8
filler
  6
Continuous
 62
     7
100
AcDbPolyline
 90
        2
 70
     0
 43
0.0
 10
7907945.3108
 20
-285339.2815
 10
7907948.9321
 20
-285339.2815
  0
LWPOLYLINE
  5
1101
330
1F
100
AcDbEntity
  8
filler
  6
Continuous
 62
     7
100
AcDbPolyline
 90
        2
 70
     0
 43
0.0
 10
7907941.6895
 20
-285350.3394
 10
7907945.3108
 20
-285350.3394
  0
LWPOLYLINE
  5
1105
330
1F
100
AcDbEntity
  8
filler
  6
Continuous
 62
     7
100
AcDbPolyline
 90
        2
 70
     0
 43
0.0
 10
7907948.9321
 20
-285350.3394
 10
7907951.5187
 20
-285350.3394
  0
LWPOLYLINE
  5
1109
330
1F
100
AcDbEntity
  8
filler
  6
Continuous
 62
     7
100
AcDbPolyline
 90
        2
 70
     0
 43
0.0
 10
7907939.1028
 20
-285354.0254
 10
7907941.6895
 20
-285354.0254
  0
LWPOLYLINE
  5
110D
330
1F
100
AcDbEntity
  8
filler
  6
Continuous
 62
     7
100
AcDbPolyline
 90
        2
 70
     0
 43
0.0
 10
7907945.3108
 20
-285354.0254
 10
7907948.9321
 20
-285354.0254
  0
LWPOLYLINE
  5
1111
330
1F
100
AcDbEntity
  8
filler
  6
Continuous
 62
     7
100
AcDbPolyline
 90
        2
 70
     0
 43
0.0
 10
7907945.3108
 20
-285366.8293
 10
7907945.3108
 20
-285366.4736
  0
LWPOLYLINE
  5
1115
330
1F
100
AcDbEntity
  8
filler
  6
Continuous
 62
     7
100
AcDbPolyline
 90
        2
 70
     0
 43
0.0
 10
7907945.3108
 20
-285363.1433
 10
7907945.3108
 20
-285362.7877
  0
LWPOLYLINE
  5
1119
330
1F
100
AcDbEntity
  8
filler
  6
Continuous
 62
     7
100
AcDbPolyline
 90
        2
 70
     0
 43
0.0
 10
7907945.3108
 20
-285359.4573
 10
7907945.3108
 20
-285359.1017
  0
LWPOLYLINE
  5
111D
330
1F
100
AcDbEntity
  8
filler
  6
Continuous
 62
     7
100
AcDbPolyline
 90
        2
 70
     0
 43
0.0
 10
7907945.3108
 20
-285355.7714
 10
7907945.3108
 20
-285355.4157
  0
LWPOLYLINE
  5
1121
330
1F
100
AcDbEntity
  8
filler
  6
Continuous
 62
     7
100
AcDbPolyline
 90
        2
 70
     0
 43
0.0
 10
7907943.2415
 20
-285368.7046
 10
7907943.2415
 20
-285368.3489
  0
LWPOLYLINE
  5
1125
330
1F
100
AcDbEntity
  8
filler
  6
Continuous
 62
     7
100
AcDbPolyline
 90
        2
 70
     0
 43
0.0
 10
7907943.2415
 20
-285365.0186
 10
7907943.2415
 20
-285364.663
  0
LWPOLYLINE
  5
1129
330
1F
100
AcDbEntity
  8
filler
  6
Continuous
 62
     7
100
AcDbPolyline
 90
        2
 70
     0
 43
0.0
 10
7907943.2415
 20
-285361.3327
 10
7907943.2415
 20
-285360.977
  0
LWPOLYLINE
  5
112D
330
1F
100
AcDbEntity
  8
filler
  6
Continuous
 62
     7
100
AcDbPolyline
 90
        2
 70
     0
 43
0.0
 10
7907943.2415
 20
-285357.6467
 10
7907943.2415
 20
-285357.291
  0
LWPOLYLINE
  5
1131
330
1F
100
AcDbEntity
  8
filler
  6
Continuous
 62
     7
100
AcDbPolyline
 90
        2
 70
     0
 43
0.0
 10
7907941.1722
 20
-285370.2243
 10
7907941.1722
 20
-285370.1919
  0
LWPOLYLINE
  5
1135
330
1F
100
AcDbEntity
  8
filler
  6
Continuous
 62
     7
100
AcDbPolyline
 90
        2
 70
     0
 43
0.0
 10
7907941.1722
 20
-285366.8616
 10
7907941.1722
 20
-285366.506
  0
LWPOLYLINE
  5
1139
330
1F
100
AcDbEntity
  8
filler
  6
Continuous
 62
     7
100
AcDbPolyline
 90
        2
 70
     0
 43
0.0
 10
7907941.1722
 20
-285363.1756
 10
7907941.1722
 20
-285362.82
  0
LWPOLYLINE
  5
113D
330
1F
100
AcDbEntity
  8
filler
  6
Continuous
 62
     7
100
AcDbPolyline
 90
        2
 70
     0
 43
0.0
 10
7907941.1722
 20
-285359.4897
 10
7907941.1722
 20
-285359.134
  0
LWPOLYLINE
  5
1141
330
1F
100
AcDbEntity
  8
filler
  6
Continuous
 62
     7
100
AcDbPolyline
 90
        2
 70
     0
 43
0.0
 10
7907941.1722
 20
-285355.8037
 10
7907941.1722
 20
-285355.448
  0
LWPOLYLINE
  5
1145
330
1F
100
AcDbEntity
  8
filler
  6
Continuous
 62
     7
100
AcDbPolyline
 90
        2
 70
     0
 43
0.0
 10
7907939.1028
 20
-285368.7046
 10
7907939.1028
 20
-285368.3489
  0
LWPOLYLINE
  5
1149
330
1F
100
AcDbEntity
  8
filler
  6
Continuous
 62
     7
100
AcDbPolyline
 90
        2
 70
     0
 43
0.0
 10
7907939.1028
 20
-285365.0186
 10
7907939.1028
 20
-285364.663
  0
LWPOLYLINE
  5
114D
330
1F
100
AcDbEntity
  8
filler
  6
Continuous
 62
     7
100
AcDbPolyline
 90
        2
 70
     0
 43
0.0
 10
7907939.1028
 20
-285361.3327
 10
7907939.1028
 20
-285360.977
  0
LWPOLYLINE
  5
1151
330
1F
100
AcDbEntity
  8
filler
  6
Continuous
 62
     7
100
AcDbPolyline
 90
        2
 70
     0
 43
0.0
 10
7907939.1028
 20
-285357.6467
 10
7907939.1028
 20
-285357.291
  0
LWPOLYLINE
  5
1155
330
1F
100
AcDbEntity
  8
filler
  6
Continuous
 62
     7
100
AcDbPolyline
 90
        2
 70
     0
 43
0.0
 10
7907947.3801
 20
-285368.6723
 10
7907947.3801
 20
-285368.3166
  0
LWPOLYLINE
  5
1159
330
1F
100
AcDbEntity
  8
filler
  6
Continuous
 62
     7
100
AcDbPolyline
 90
        2
 70
     0
 43
0.0
 10
7907947.3801
 20
-285364.9863
 10
7907947.3801
 20
-285364.6306
  0
LWPOLYLINE
  5
115D
330
1F
100
AcDbEntity
  8
filler
  6
Continuous
 62
     7
100
AcDbPolyline
 90
        2
 70
     0
 43
0.0
 10
7907947.3801
 20
-285361.3003
 10
7907947.3801
 20
-285360.9447
  0
LWPOLYLINE
  5
1161
330
1F
100
AcDbEntity
  8
filler
  6
Continuous
 62
     7
100
AcDbPolyline
 90
        2
 70
     0
 43
0.0
 10
7907947.3801
 20
-285357.6144
 10
7907947.3801
 20
-285357.2587
  0
LWPOLYLINE
  5
1165
330
1F
100
AcDbEntity
  8
filler
  6
Continuous
 62
     7
100
AcDbPolyline
 90
        2
 70
     0
 43
0.0
 10
7907949.4494
 20
-285370.2889
 10
7907949.4494
 20
-285370.1596
  0
LWPOLYLINE
  5
1169
330
1F
100
AcDbEntity
  8
filler
  6
Continuous
 62
     7
100
AcDbPolyline
 90
        2
 70
     0
 43
0.0
 10
7907949.4494
 20
-285366.8293
 10
7907949.4494
 20
-285366.4736
  0
LWPOLYLINE
  5
116D
330
1F
100
AcDbEntity
  8
filler
  6
Continuous
 62
     7
100
AcDbPolyline
 90
        2
 70
     0
 43
0.0
 10
7907949.4494
 20
-285363.1433
 10
7907949.4494
 20
-285362.7877
  0
LWPOLYLINE
  5
1171
330
1F
100
AcDbEntity
  8
filler
  6
Continuous
 62
     7
100
AcDbPolyline
 90
        2
 70
     0
 43
0.0
 10
7907949.4494
 20
-285359.4573
 10
7907949.4494
 20
-285359.1017
  0
LWPOLYLINE
  5
1175
330
1F
100
AcDbEntity
  8
filler
  6
Continuous
 62
     7
100
AcDbPolyline
 90
        2
 70
     0
 43
0.0
 10
7907949.4494
 20
-285355.7714
 10
7907949.4494
 20
-285355.4157
  0
LWPOLYLINE
  5
1179
330
1F
100
AcDbEntity
  8
filler
  6
Continuous
 62
     7
100
AcDbPolyline
 90
        2
 70
     0
 43
0.0
 10
7907939.1028
 20
-285354.6397
 10
7907951.5187
 20
-285354.6397
  0
LWPOLYLINE
  5
117D
330
1F
100
AcDbEntity
  8
filler
  6
Continuous
 62
     7
100
AcDbPolyline
 90
       37
 70
     0
 43
0.0
 10
7907939.1028
 20
-285371.6469
 10
7907939.6202
 20
-285371.4529
 10
7907939.1028
 20
-285371.2589
 10
7907939.6202
 20
-285371.0649
 10
7907940.1375
 20
-285370.9032
 10
7907940.1375
 20
-285370.7093
 10
7907940.6548
 20
-285370.5476
 10
7907940.6548
 20
-285370.3536
 10
7907941.1722
 20
-285370.1919
 10
7907941.1722
 20
-285370.0626
 10
7907941.6895
 20
-285369.9009
 10
7907941.6895
 20
-285369.7716
 10
7907942.2068
 20
-285369.6423
 10
7907943.2415
 20
-285369.4806
 10
7907943.7588
 20
-285369.3189
 10
7907944.2761
 20
-285369.1896
 10
7907944.7935
 20
-285369.1249
 10
7907945.3108
 20
-285369.0603
 10
7907945.8281
 20
-285369.0603
 10
7907946.3454
 20
-285369.0603
 10
7907946.3454
 20
-285369.0926
 10
7907946.8628
 20
-285369.1896
 10
7907947.3801
 20
-285369.3189
 10
7907947.8974
 20
-285369.4483
 10
7907948.4148
 20
-285369.6423
 10
7907948.9321
 20
-285369.7716
 10
7907948.9321
 20
-285369.9009
 10
7907949.4494
 20
-285370.0626
 10
7907949.4494
 20
-285370.1919
 10
7907949.9667
 20
-285370.3536
 10
7907949.9667
 20
-285370.5476
 10
7907950.4841
 20
-285370.7093
 10
7907950.4841
 20
-285370.9032
 10
7907951.0014
 20
-285371.0649
 10
7907951.0014
 20
-285371.2589
 10
7907951.5187
 20
-285371.4529
 10
7907951.5187
 20
-285371.6469
  0
LWPOLYLINE
  5
11A4
330
1F
100
AcDbEntity
  8
filler
  6
Continuous
 62
     7
100
AcDbPolyline
 90
        2
 70
     0
 43
0.0
 10
7907939.1028
 20
-285280.306
 10
7907941.6895
 20
-285280.306
  0
LWPOLYLINE
  5
11A8
330
1F
100
AcDbEntity
  8
filler
  6
Continuous
 62
     7
100
AcDbPolyline
 90
        2
 70
     0
 43
0.0
 10
7907945.3108
 20
-285280.306
 10
7907948.9321
 20
-285280.306
  0
LWPOLYLINE
  5
11AC
330
1F
100
AcDbEntity
  8
filler
  6
Continuous
 62
     7
100
AcDbPolyline
 90
        2
 70
     0
 43
0.0
 10
7907941.6895
 20
-285276.6201
 10
7907945.3108
 20
-285276.6201
  0
LWPOLYLINE
  5
11B0
330
1F
100
AcDbEntity
  8
filler
  6
Continuous
 62
     7
100
AcDbPolyline
 90
        2
 70
     0
 43
0.0
 10
7907948.9321
 20
-285276.6201
 10
7907951.5187
 20
-285276.6201
  0
LWPOLYLINE
  5
11B4
330
1F
100
AcDbEntity
  8
filler
  6
Continuous
 62
     7
100
AcDbPolyline
 90
        2
 70
     0
 43
0.0
 10
7907939.1028
 20
-285272.9341
 10
7907941.6895
 20
-285272.9341
  0
LWPOLYLINE
  5
11B8
330
1F
100
AcDbEntity
  8
filler
  6
Continuous
 62
     7
100
AcDbPolyline
 90
        2
 70
     0
 43
0.0
 10
7907945.3108
 20
-285272.9341
 10
7907948.9321
 20
-285272.9341
  0
LWPOLYLINE
  5
11BC
330
1F
100
AcDbEntity
  8
filler
  6
Continuous
 62
     7
100
AcDbPolyline
 90
        2
 70
     0
 43
0.0
 10
7907941.1722
 20
-285269.2481
 10
7907944.7935
 20
-285269.2481
  0
LWPOLYLINE
  5
11C0
330
1F
100
AcDbEntity
  8
filler
  6
Continuous
 62
     7
100
AcDbPolyline
 90
        2
 70
     0
 43
0.0
 10
7907948.4148
 20
-285269.2481
 10
7907951.5187
 20
-285269.2481
  0
LWPOLYLINE
  5
11C4
330
1F
100
AcDbEntity
  8
filler
  6
Continuous
 62
     7
100
AcDbPolyline
 90
        2
 70
     0
 43
0.0
 10
7907941.6895
 20
-285283.992
 10
7907945.3108
 20
-285283.992
  0
LWPOLYLINE
  5
11C8
330
1F
100
AcDbEntity
  8
filler
  6
Continuous
 62
     7
100
AcDbPolyline
 90
        2
 70
     0
 43
0.0
 10
7907948.9321
 20
-285283.992
 10
7907951.5187
 20
-285283.992
  0
LWPOLYLINE
  5
11CC
330
1F
100
AcDbEntity
  8
filler
  6
Continuous
 62
     7
100
AcDbPolyline
 90
        2
 70
     0
 43
0.0
 10
7907939.1028
 20
-285287.678
 10
7907941.6895
 20
-285287.678
  0
LWPOLYLINE
  5
11D0
330
1F
100
AcDbEntity
  8
filler
  6
Continuous
 62
     7
100
AcDbPolyline
 90
        2
 70
     0
 43
0.0
 10
7907945.3108
 20
-285287.678
 10
7907948.9321
 20
-285287.678
  0
LWPOLYLINE
  5
11D4
330
1F
100
AcDbEntity
  8
filler
  6
Continuous
 62
     7
100
AcDbPolyline
 90
        2
 70
     0
 43
0.0
 10
7907941.6895
 20
-285291.3639
 10
7907945.3108
 20
-285291.3639
  0
LWPOLYLINE
  5
11D8
330
1F
100
AcDbEntity
  8
filler
  6
Continuous
 62
     7
100
AcDbPolyline
 90
        2
 70
     0
 43
0.0
 10
7907948.9321
 20
-285291.3639
 10
7907951.5187
 20
-285291.3639
  0
TEXT
  5
11DC
330
1F
100
AcDbEntity
  8
dims
 62
     7
100
AcDbText
 10
7907139.3124
 20
-284547.5743
 30
0.0
 40
24.9935
  1
Scale 1:10
 41
0.8581662783806895
 72
     5
 11
7907303.823
 21
-284547.5743
 31
0.0
100
AcDbText
  0
TEXT
  5
11DD
330
1F
100
AcDbEntity
  8
dims
 62
     7
100
AcDbText
 10
7906293.997
 20
-284865.1496
 30
0.0
 40
25.0258
  1
Compressible foam 
 41
0.788550683905333
 72
     5
 11
7906626.1221
 21
-284865.1496
 31
0.0
100
AcDbText
  0
TEXT
  5
11DE
330
1F
100
AcDbEntity
  8
dims
 62
     7
100
AcDbText
 10
7906293.997
 20
-284902.6559
 30
0.0
 40
25.0258
  1
joint filler
 41
0.5890113542538211
 72
     5
 11
7906429.0198
 21
-284902.6559
 31
0.0
100
AcDbText
  0
LWPOLYLINE
  5
11DF
330
1F
100
AcDbEntity
  8
dims
  6
Continuous
 62
     7
100
AcDbPolyline
 90
        3
 70
     0
 43
0.0
 10
7906434.7104
 20
-284890.1754
 10
7906570.2506
 20
-284890.1754
 10
7906570.2506
 20
-284971.1373
  0
LWPOLYLINE
  5
11E4
330
1F
100
AcDbEntity
  8
dims
  6
Continuous
 62
     7
100
AcDbPolyline
 90
        4
 70
     0
 43
0.0
 10
7906575.4239
 20
-284945.7882
 10
7906570.2506
 20
-284971.1373
 10
7906565.0773
 20
-284945.7882
 10
7906575.4239
 20
-284945.7882
  0
LWPOLYLINE
  5
11EA
330
1F
100
AcDbEntity
  8
dims
  6
Continuous
 62
     7
100
AcDbPolyline
 90
        3
 70
     0
 43
0.0
 10
7906629.2261
 20
-285158.1517
 10
7906571.2852
 20
-285158.1517
 10
7906571.2852
 20
-285061.1526
  0
LWPOLYLINE
  5
11EF
330
1F
100
AcDbEntity
  8
dims
  6
Continuous
 62
     7
100
AcDbPolyline
 90
        4
 70
     0
 43
0.0
 10
7906566.112
 20
-285086.5017
 10
7906571.2852
 20
-285061.1526
 10
7906576.4585
 20
-285086.5017
 10
7906566.112
 20
-285086.5017
  0
TEXT
  5
11F5
330
1F
100
AcDbEntity
  8
dims
 62
     7
100
AcDbText
 10
7906715.1027
 20
-284906.1479
 30
0.0
 40
25.0258
  1
Articulation joint tie
 41
0.6273761286215426
 72
     5
 11
7907002.7375
 21
-284906.1479
 31
0.0
100
AcDbText
  0
LWPOLYLINE
  5
11F6
330
1F
100
AcDbEntity
  8
dims
  6
Continuous
 62
     7
100
AcDbPolyline
 90
        3
 70
     0
 43
0.0
 10
7906709.9294
 20
-284893.15
 10
7906668.5431
 20
-284893.15
 10
7906668.5431
 20
-284997.1331
  0
LWPOLYLINE
  5
11FB
330
1F
100
AcDbEntity
  8
dims
  6
Continuous
 62
     7
100
AcDbPolyline
 90
        4
 70
     0
 43
0.0
 10
7906673.7164
 20
-284971.784
 10
7906668.5431
 20
-284997.1331
 10
7906663.3698
 20
-284971.784
 10
7906673.7164
 20
-284971.784
  0
TEXT
  5
1201
330
1F
100
AcDbEntity
  8
dims
 62
     7
100
AcDbText
 10
7908101.5441
 20
-284706.4913
 30
0.0
 40
24.9935
  1
Articulation joint tie
 41
0.6259273699376227
 72
     5
 11
7908388.1443
 21
-284706.4913
 31
0.0
100
AcDbText
  0
LWPOLYLINE
  5
1202
330
1F
100
AcDbEntity
  8
dims
  6
Continuous
 62
     7
100
AcDbPolyline
 90
        3
 70
     0
 43
0.0
 10
7908098.4401
 20
-284692.4911
 10
7908048.7766
 20
-284692.4911
 10
7907951.5187
 20
-284758.5152
  0
LWPOLYLINE
  5
1207
330
1F
100
AcDbEntity
  8
dims
  6
Continuous
 62
     7
100
AcDbPolyline
 90
        4
 70
     0
 43
0.0
 10
7907974.7985
 20
-284748.6859
 10
7907951.5187
 20
-284758.5152
 10
7907969.1079
 20
-284740.4733
 10
7907974.7985
 20
-284748.6859
  0
TEXT
  5
120D
330
1F
100
AcDbEntity
  8
dims
 62
     7
100
AcDbText
 10
7907655.6066
 20
-285212.6006
 30
0.0
 40
24.9935
  1
joint filler
 41
0.5875130153926055
 72
     5
 11
7907790.1121
 21
-285212.6006
 31
0.0
100
AcDbText
  0
LWPOLYLINE
  5
120E
330
1F
100
AcDbEntity
  8
dims
  6
Continuous
 62
     7
100
AcDbPolyline
 90
        3
 70
     0
 43
0.0
 10
7907808.736
 20
-285198.6327
 10
7907945.3108
 20
-285198.6327
 10
7907945.3108
 20
-285279.6594
  0
LWPOLYLINE
  5
1213
330
1F
100
AcDbEntity
  8
dims
  6
Continuous
 62
     7
100
AcDbPolyline
 90
        4
 70
     0
 43
0.0
 10
7907950.4841
 20
-285254.8276
 10
7907945.3108
 20
-285279.6594
 10
7907940.1375
 20
-285254.8276
 10
7907950.4841
 20
-285254.8276
  0
LWPOLYLINE
  5
1219
330
1F
100
AcDbEntity
  8
dims
  6
Continuous
 62
     7
100
AcDbPolyline
 90
        3
 70
     0
 43
0.0
 10
7908004.2863
 20
-285466.6414
 10
7907945.8281
 20
-285466.6414
 10
7907945.8281
 20
-285369.6423
  0
LWPOLYLINE
  5
121E
330
1F
100
AcDbEntity
  8
dims
  6
Continuous
 62
     7
100
AcDbPolyline
 90
        4
 70
     0
 43
0.0
 10
7907940.6548
 20
-285394.474
 10
7907945.8281
 20
-285369.6423
 10
7907951.0014
 20
-285394.474
 10
7907940.6548
 20
-285394.474
  0
LWPOLYLINE
  5
1224
330
1F
100
AcDbEntity
  8
dims
  6
Continuous
 62
     7
100
AcDbPolyline
 90
        3
 70
     0
 43
0.0
 10
7908084.9896
 20
-285201.6397
 10
7908042.5686
 20
-285201.6397
 10
7908042.5686
 20
-285305.6551
  0
LWPOLYLINE
  5
1229
330
1F
100
AcDbEntity
  8
dims
  6
Continuous
 62
     7
100
AcDbPolyline
 90
        4
 70
     0
 43
0.0
 10
7908047.7419
 20
-285280.8234
 10
7908042.5686
 20
-285305.6551
 10
7908037.3953
 20
-285280.8234
 10
7908047.7419
 20
-285280.8234
  0
TEXT
  5
122F
330
1F
100
AcDbEntity
  8
0
 62
     7
100
AcDbText
 10
7907136.2084
 20
-285671.6653
 30
0.0
 40
30.0051
  1
Articulation Joint Ties
 50
0.0350687982869764
 41
0.6631167042411042
 72
     5
 11
7907523.998577469
 21
-285671.4279467896
 31
0.0
100
AcDbText
  0
MTEXT
  5
125B
330
1F
100
AcDbEntity
  8
0
100
AcDbMText
 10
7905021.179525072
 20
-284046.655313446
 30
0.0
 40
0.2
 41
0.0
 46
0.0
 71
     1
 72
     1
  1
390mmH x 190mmW Bond Beam Detail
 73
     1
 44
1.0
  0
MTEXT
  5
125C
330
1F
100
AcDbEntity
  8
0
100
AcDbMText
 10
7905021.179525072
 20
-284046.655313446
 30
0.0
 40
0.2
 41
0.0
 46
0.0
 71
     1
 72
     1
  1
390mmH x 190mmW Bond Beam Detail
 73
     1
 44
1.0
  0
TEXT
  5
125F
330
1F
100
AcDbEntity
  8
0
  6
Continuous
 62
     7
370
    30
100
AcDbText
 10
7906720.813005132
 20
-285598.1290289192
 30
0.0
 40
29.99999996362607
  1
Reinforced Concrete Masonry Manafactured By Island Block & Paving
 50
0.1153913904484886
 41
0.7136428613375777
  7
_TCW_TXTSTY_4
 72
     5
 11
7908048.186033671
 21
-285595.4557495295
 31
0.0
100
AcDbText
1001
TCAD
1000
TCW40_TEXT
1002
{
1000
txt.shx
1070
     0
1070
  1025
1002
}
  0
ENDSEC
  0
SECTION
  2
OBJECTS
  0
DICTIONARY
  5
C
330
0
100
AcDbDictionary
281
     1
  3
ACAD_COLOR
350
6C
  3
ACAD_GROUP
350
D
  3
ACAD_LAYOUT
350
1A
  3
ACAD_MATERIAL
350
6B
  3
ACAD_MLEADERSTYLE
350
127A
  3
ACAD_MLINESTYLE
350
17
  3
ACAD_PLOTSETTINGS
350
19
  3
ACAD_PLOTSTYLENAME
350
E
  3
ACAD_SCALELIST
350
99
  3
ACAD_TABLESTYLE
350
92
  3
AcDbVariableDictionary
350
59
  0
DICTIONARY
  5
1279
330
1F
100
AcDbDictionary
280
     1
281
     1
  0
DICTIONARY
  5
6C
102
{ACAD_REACTORS
330
C
102
}
330
C
100
AcDbDictionary
281
     1
  0
DICTIONARY
  5
D
102
{ACAD_REACTORS
330
C
102
}
330
C
100
AcDbDictionary
281
     1
  0
DICTIONARY
  5
1A
102
{ACAD_REACTORS
330
C
102
}
330
C
100
AcDbDictionary
281
     1
  3
Layout1
350
74
  3
Model
350
22
  0
DICTIONARY
  5
6B
102
{ACAD_REACTORS
330
C
102
}
330
C
100
AcDbDictionary
281
     1
  0
DICTIONARY
  5
127A
102
{ACAD_REACTORS
330
C
102
}
330
C
100
AcDbDictionary
281
     1
  0
DICTIONARY
  5
17
102
{ACAD_REACTORS
330
C
102
}
330
C
100
AcDbDictionary
281
     1
  3
Standard
350
18
  0
DICTIONARY
  5
19
102
{ACAD_REACTORS
330
C
102
}
330
C
100
AcDbDictionary
281
     1
  0
ACDBDICTIONARYWDFLT
  5
E
102
{ACAD_REACTORS
330
C
102
}
330
C
100
AcDbDictionary
281
     1
  3
Normal
350
F
100
AcDbDictionaryWithDefault
340
F
  0
DICTIONARY
  5
99
102
{ACAD_REACTORS
330
C
102
}
330
C
100
AcDbDictionary
281
     1
  3
A0
350
1236
  3
A1
350
1237
  3
A2
350
1238
  3
A3
350
1239
  3
A4
350
123A
  3
A5
350
123B
  3
A6
350
123C
  3
A7
350
123D
  3
A8
350
123E
  3
A9
350
123F
  3
B0
350
1240
  3
B1
350
1241
  3
B2
350
1242
  3
B3
350
1243
  3
B4
350
1244
  3
B5
350
1245
  3
B6
350
1246
  3
B7
350
1247
  3
B8
350
1248
  3
B9
350
1249
  3
C0
350
124A
  3
C1
350
124B
  3
C2
350
124C
  3
C3
350
124D
  3
C4
350
124E
  3
C5
350
124F
  3
C6
350
1250
  3
C7
350
1251
  3
C8
350
1252
  3
C9
350
1253
  3
D0
350
1254
  3
D1
350
1255
  3
D2
350
1256
  0
DICTIONARY
  5
92
102
{ACAD_REACTORS
330
C
102
}
330
C
100
AcDbDictionary
281
     1
  3
Standard
350
93
  0
DICTIONARY
  5
59
102
{ACAD_REACTORS
330
C
102
}
330
C
100
AcDbDictionary
281
     1
  3
CANNOSCALE
350
127B
  3
CTABLESTYLE
350
98
  3
DIMASSOC
350
1258
  3
HIDETEXT
350
5E
  0
LAYOUT
  5
74
102
{ACAD_REACTORS
330
1A
102
}
330
1A
100
AcDbPlotSettings
  1

  2
none_device
  4
ISO_C5_(229.00_x_162.00_MM)
  6

 40
0.0
 41
0.0
 42
0.0
 43
0.0
 44
229.0
 45
162.0
 46
0.0
 47
0.0
 48
0.0
 49
0.0
140
0.0
141
0.0
142
1.0
143
1.0
 70
   688
 72
     1
 73
     0
 74
     5
  7

 75
    16
 76
     0
 77
     2
 78
   300
147
1.0
148
0.0
149
0.0
100
AcDbLayout
  1
Layout1
 70
     1
 71
     1
 10
0.0
 20
0.0
 11
12.0
 21
9.0
 12
0.0
 22
0.0
 32
0.0
 14
1.000000000000000E+20
 24
1.000000000000000E+20
 34
1.000000000000000E+20
 15
-1.000000000000000E+20
 25
-1.000000000000000E+20
 35
-1.000000000000000E+20
146
0.0
 13
0.0
 23
0.0
 33
0.0
 16
1.0
 26
0.0
 36
0.0
 17
0.0
 27
1.0
 37
0.0
 76
     0
330
73
  0
LAYOUT
  5
22
102
{ACAD_REACTORS
330
1A
102
}
330
1A
100
AcDbPlotSettings
  1

  2
none_device
  4
ISO_C5_(229.00_x_162.00_MM)
  6

 40
0.0
 41
0.0
 42
0.0
 43
0.0
 44
229.0
 45
162.0
 46
0.0
 47
0.0
 48
0.0
 49
0.0
140
0.0
141
0.0
142
1.0
143
1.0
 70
 11952
 72
     1
 73
     0
 74
     0
  7

 75
    16
 76
     0
 77
     2
 78
   300
147
1.0
148
0.0
149
0.0
100
AcDbLayout
  1
Model
 70
     1
 71
     0
 10
7906154.3182
 20
-285751.2047
 11
7908388.1443
 21
-284061.8025
 12
0.0
 22
0.0
 32
0.0
 14
7905021.179525072
 24
-285745.1907
 34
0.0
 15
7908388.1443
 25
-284046.655313446
 35
0.0
146
0.0
 13
0.0
 23
0.0
 33
0.0
 16
1.0
 26
0.0
 36
0.0
 17
0.0
 27
1.0
 37
0.0
 76
     0
330
1F
331
97
  0
MLINESTYLE
  5
18
102
{ACAD_REACTORS
330
17
102
}
330
17
100
AcDbMlineStyle
  2
Standard
 70
     0
  3

 62
   256
 51
90.0
 52
90.0
 71
     2
 49
0.5
 62
   256
  6
BYLAYER
 49
-0.5
 62
   256
  6
BYLAYER
  0
ACDBPLACEHOLDER
  5
F
102
{ACAD_REACTORS
330
E
102
}
330
E
  0
SCALE
  5
1236
102
{ACAD_REACTORS
330
99
102
}
330
99
100
AcDbScale
 70
     0
300
1:1
140
1.0
141
1.0
290
     1
  0
SCALE
  5
1237
102
{ACAD_REACTORS
330
99
102
}
330
99
100
AcDbScale
 70
     0
300
1:2
140
1.0
141
2.0
290
     0
  0
SCALE
  5
1238
102
{ACAD_REACTORS
330
99
102
}
330
99
100
AcDbScale
 70
     0
300
1:4
140
1.0
141
4.0
290
     0
  0
SCALE
  5
1239
102
{ACAD_REACTORS
330
99
102
}
330
99
100
AcDbScale
 70
     0
300
1:5
140
1.0
141
5.0
290
     0
  0
SCALE
  5
123A
102
{ACAD_REACTORS
330
99
102
}
330
99
100
AcDbScale
 70
     0
300
1:8
140
1.0
141
8.0
290
     0
  0
SCALE
  5
123B
102
{ACAD_REACTORS
330
99
102
}
330
99
100
AcDbScale
 70
     0
300
1:10
140
1.0
141
10.0
290
     0
  0
SCALE
  5
123C
102
{ACAD_REACTORS
330
99
102
}
330
99
100
AcDbScale
 70
     0
300
1:16
140
1.0
141
16.0
290
     0
  0
SCALE
  5
123D
102
{ACAD_REACTORS
330
99
102
}
330
99
100
AcDbScale
 70
     0
300
1:20
140
1.0
141
20.0
290
     0
  0
SCALE
  5
123E
102
{ACAD_REACTORS
330
99
102
}
330
99
100
AcDbScale
 70
     0
300
1:30
140
1.0
141
30.0
290
     0
  0
SCALE
  5
123F
102
{ACAD_REACTORS
330
99
102
}
330
99
100
AcDbScale
 70
     0
300
1:40
140
1.0
141
40.0
290
     0
  0
SCALE
  5
1240
102
{ACAD_REACTORS
330
99
102
}
330
99
100
AcDbScale
 70
     0
300
1:50
140
1.0
141
50.0
290
     0
  0
SCALE
  5
1241
102
{ACAD_REACTORS
330
99
102
}
330
99
100
AcDbScale
 70
     0
300
1:100
140
1.0
141
100.0
290
     0
  0
SCALE
  5
1242
102
{ACAD_REACTORS
330
99
102
}
330
99
100
AcDbScale
 70
     0
300
2:1
140
2.0
141
1.0
290
     0
  0
SCALE
  5
1243
102
{ACAD_REACTORS
330
99
102
}
330
99
100
AcDbScale
 70
     0
300
4:1
140
4.0
141
1.0
290
     0
  0
SCALE
  5
1244
102
{ACAD_REACTORS
330
99
102
}
330
99
100
AcDbScale
 70
     0
300
8:1
140
8.0
141
1.0
290
     0
  0
SCALE
  5
1245
102
{ACAD_REACTORS
330
99
102
}
330
99
100
AcDbScale
 70
     0
300
10:1
140
10.0
141
1.0
290
     0
  0
SCALE
  5
1246
102
{ACAD_REACTORS
330
99
102
}
330
99
100
AcDbScale
 70
     0
300
100:1
140
100.0
141
1.0
290
     0
  0
SCALE
  5
1247
102
{ACAD_REACTORS
330
99
102
}
330
99
100
AcDbScale
 70
     0
300
1/128" = 1'-0"
140
0.0078125
141
12.0
290
     0
  0
SCALE
  5
1248
102
{ACAD_REACTORS
330
99
102
}
330
99
100
AcDbScale
 70
     0
300
1/64" = 1'-0"
140
0.015625
141
12.0
290
     0
  0
SCALE
  5
1249
102
{ACAD_REACTORS
330
99
102
}
330
99
100
AcDbScale
 70
     0
300
1/32" = 1'-0"
140
0.03125
141
12.0
290
     0
  0
SCALE
  5
124A
102
{ACAD_REACTORS
330
99
102
}
330
99
100
AcDbScale
 70
     0
300
1/16" = 1'-0"
140
0.0625
141
12.0
290
     0
  0
SCALE
  5
124B
102
{ACAD_REACTORS
330
99
102
}
330
99
100
AcDbScale
 70
     0
300
3/32" = 1'-0"
140
0.09375
141
12.0
290
     0
  0
SCALE
  5
124C
102
{ACAD_REACTORS
330
99
102
}
330
99
100
AcDbScale
 70
     0
300
1/8" = 1'-0"
140
0.125
141
12.0
290
     0
  0
SCALE
  5
124D
102
{ACAD_REACTORS
330
99
102
}
330
99
100
AcDbScale
 70
     0
300
3/16" = 1'-0"
140
0.1875
141
12.0
290
     0
  0
SCALE
  5
124E
102
{ACAD_REACTORS
330
99
102
}
330
99
100
AcDbScale
 70
     0
300
1/4" = 1'-0"
140
0.25
141
12.0
290
     0
  0
SCALE
  5
124F
102
{ACAD_REACTORS
330
99
102
}
330
99
100
AcDbScale
 70
     0
300
3/8" = 1'-0"
140
0.375
141
12.0
290
     0
  0
SCALE
  5
1250
102
{ACAD_REACTORS
330
99
102
}
330
99
100
AcDbScale
 70
     0
300
1/2" = 1'-0"
140
0.5
141
12.0
290
     0
  0
SCALE
  5
1251
102
{ACAD_REACTORS
330
99
102
}
330
99
100
AcDbScale
 70
     0
300
3/4" = 1'-0"
140
0.75
141
12.0
290
     0
  0
SCALE
  5
1252
102
{ACAD_REACTORS
330
99
102
}
330
99
100
AcDbScale
 70
     0
300
1" = 1'-0"
140
1.0
141
12.0
290
     0
  0
SCALE
  5
1253
102
{ACAD_REACTORS
330
99
102
}
330
99
100
AcDbScale
 70
     0
300
1-1/2" = 1'-0"
140
1.5
141
12.0
290
     0
  0
SCALE
  5
1254
102
{ACAD_REACTORS
330
99
102
}
330
99
100
AcDbScale
 70
     0
300
3" = 1'-0"
140
3.0
141
12.0
290
     0
  0
SCALE
  5
1255
102
{ACAD_REACTORS
330
99
102
}
330
99
100
AcDbScale
 70
     0
300
6" = 1'-0"
140
6.0
141
12.0
290
     0
  0
SCALE
  5
1256
102
{ACAD_REACTORS
330
99
102
}
330
99
100
AcDbScale
 70
     0
300
1'-0" = 1'-0"
140
12.0
141
12.0
290
     0
  0
TABLESTYLE
  5
93
102
{ACAD_REACTORS
330
92
102
}
330
92
100
AcDbTableStyle
  3
Standard
 70
     0
 71
     0
 40
0.06
 41
0.06
280
     0
281
     0
  7
Standard
140
0.18
170
     2
 62
     0
 63
     7
283
     0
 90
      512
 91
        0
  1

274
    -2
284
     1
 64
     0
275
    -2
285
     1
 65
     0
276
    -2
286
     1
 66
     0
277
    -2
287
     1
 67
     0
278
    -2
288
     1
 68
     0
279
    -2
289
     1
 69
     0
  7
Standard
140
0.25
170
     5
 62
     0
 63
     7
283
     0
 90
      512
 91
        0
  1

274
    -2
284
     1
 64
     0
275
    -2
285
     1
 65
     0
276
    -2
286
     1
 66
     0
277
    -2
287
     1
 67
     0
278
    -2
288
     1
 68
     0
279
    -2
289
     1
 69
     0
  7
Standard
140
0.18
170
     5
 62
     0
 63
     7
283
     0
 90
      512
 91
        0
  1

274
    -2
284
     1
 64
     0
275
    -2
285
     1
 65
     0
276
    -2
286
     1
 66
     0
277
    -2
287
     1
 67
     0
278
    -2
288
     1
 68
     0
279
    -2
289
     1
 69
     0
  0
DICTIONARYVAR
  5
127B
102
{ACAD_REACTORS
330
59
102
}
330
59
100
DictionaryVariables
280
     0
  1
1:1
  0
DICTIONARYVAR
  5
98
102
{ACAD_REACTORS
330
59
102
}
330
59
100
DictionaryVariables
280
     0
  1
Standard
  0
DICTIONARYVAR
  5
1258
102
{ACAD_REACTORS
330
59
102
}
330
59
100
DictionaryVariables
280
     0
  1
2
  0
DICTIONARYVAR
  5
5E
102
{ACAD_REACTORS
330
59
102
}
330
59
100
DictionaryVariables
280
     0
  1
1
  0
ENDSEC
  0
EOF
