  0
SECTION
  2
HEADER
  9
$ACADVER
  1
AC1021
  9
$ACADMAINTVER
 70
    25
  9
$DWGCODEPAGE
  3
ANSI_1252
  9
$LASTSAVEDBY
  1
jbassett
  9
$INSBASE
 10
0.0
 20
0.0
 30
0.0
  9
$EXTMIN
 10
62927.4661
 20
-694.1761750158676
 30
0.0
  9
$EXTMAX
 10
65948.75127277656
 20
1521.6251
 30
0.0
  9
$LIMMIN
 10
62927.4661
 20
-686.3755
  9
$LIMMAX
 10
65479.9668
 20
1531.6252
  9
$ORTHOMODE
 70
     0
  9
$REGENMODE
 70
     1
  9
$FILLMODE
 70
     1
  9
$QTEXTMODE
 70
     0
  9
$MIRRTEXT
 70
     1
  9
$LTSCALE
 40
1.0
  9
$ATTMODE
 70
     1
  9
$TEXTSIZE
 40
0.2
  9
$TRACEWID
 40
0.05
  9
$TEXTSTYLE
  7
Standard
  9
$CLAYER
  8
0
  9
$CELTYPE
  6
ByLayer
  9
$CECOLOR
 62
   256
  9
$CELTSCALE
 40
1.0
  9
$DISPSILH
 70
     0
  9
$DIMSCALE
 40
1.0
  9
$DIMASZ
 40
0.18
  9
$DIMEXO
 40
0.0625
  9
$DIMDLI
 40
0.38
  9
$DIMRND
 40
0.0
  9
$DIMDLE
 40
0.0
  9
$DIMEXE
 40
0.18
  9
$DIMTP
 40
0.0
  9
$DIMTM
 40
0.0
  9
$DIMTXT
 40
0.18
  9
$DIMCEN
 40
0.09
  9
$DIMTSZ
 40
0.0
  9
$DIMTOL
 70
     0
  9
$DIMLIM
 70
     0
  9
$DIMTIH
 70
     1
  9
$DIMTOH
 70
     1
  9
$DIMSE1
 70
     0
  9
$DIMSE2
 70
     0
  9
$DIMTAD
 70
     0
  9
$DIMZIN
 70
     0
  9
$DIMBLK
  1

  9
$DIMASO
 70
     1
  9
$DIMSHO
 70
     0
  9
$DIMPOST
  1

  9
$DIMAPOST
  1

  9
$DIMALT
 70
     0
  9
$DIMALTD
 70
     2
  9
$DIMALTF
 40
25.4
  9
$DIMLFAC
 40
1.0
  9
$DIMTOFL
 70
     0
  9
$DIMTVP
 40
0.0
  9
$DIMTIX
 70
     0
  9
$DIMSOXD
 70
     0
  9
$DIMSAH
 70
     0
  9
$DIMBLK1
  1

  9
$DIMBLK2
  1

  9
$DIMSTYLE
  2
Standard
  9
$DIMCLRD
 70
     0
  9
$DIMCLRE
 70
     0
  9
$DIMCLRT
 70
     0
  9
$DIMTFAC
 40
1.0
  9
$DIMGAP
 40
0.09
  9
$DIMJUST
 70
     0
  9
$DIMSD1
 70
     0
  9
$DIMSD2
 70
     0
  9
$DIMTOLJ
 70
     1
  9
$DIMTZIN
 70
     0
  9
$DIMALTZ
 70
     0
  9
$DIMALTTZ
 70
     0
  9
$DIMUPT
 70
     0
  9
$DIMDEC
 70
     4
  9
$DIMTDEC
 70
     4
  9
$DIMALTU
 70
     2
  9
$DIMALTTD
 70
     2
  9
$DIMTXSTY
  7
Standard
  9
$DIMAUNIT
 70
     0
  9
$DIMADEC
 70
     0
  9
$DIMALTRND
 40
0.0
  9
$DIMAZIN
 70
     0
  9
$DIMDSEP
 70
    46
  9
$DIMATFIT
 70
     3
  9
$DIMFRAC
 70
     0
  9
$DIMLDRBLK
  1

  9
$DIMLUNIT
 70
     2
  9
$DIMLWD
 70
    -2
  9
$DIMLWE
 70
    -2
  9
$DIMTMOVE
 70
     2
  9
$DIMFXL
 40
1.0
  9
$DIMFXLON
 70
     0
  9
$DIMJOGANG
 40
0.7853981633974483
  9
$DIMTFILL
 70
     0
  9
$DIMTFILLCLR
 70
     0
  9
$DIMARCSYM
 70
     0
  9
$DIMLTYPE
  6

  9
$DIMLTEX1
  6

  9
$DIMLTEX2
  6

  9
$LUNITS
 70
     2
  9
$LUPREC
 70
     4
  9
$SKETCHINC
 40
0.1
  9
$FILLETRAD
 40
0.0
  9
$AUNITS
 70
     0
  9
$AUPREC
 70
     0
  9
$MENU
  1
.
  9
$ELEVATION
 40
0.0
  9
$PELEVATION
 40
0.0
  9
$THICKNESS
 40
0.0
  9
$LIMCHECK
 70
     0
  9
$CHAMFERA
 40
0.0
  9
$CHAMFERB
 40
0.0
  9
$CHAMFERC
 40
1.0
  9
$CHAMFERD
 40
0.0
  9
$SKPOLY
 70
     0
  9
$TDCREATE
 40
2453354.133792488
  9
$TDUCREATE
 40
2453353.717125822
  9
$TDUPDATE
 40
2447222.566688657
  9
$TDUUPDATE
 40
2447222.150021991
  9
$TDINDWG
 40
0.0457407523
  9
$TDUSRTIMER
 40
0.0457407523
  9
$USRTIMER
 70
     1
  9
$ANGBASE
 50
0.0
  9
$ANGDIR
 70
     0
  9
$PDMODE
 70
     0
  9
$PDSIZE
 40
0.0
  9
$PLINEWID
 40
0.0
  9
$SPLFRAME
 70
     0
  9
$SPLINETYPE
 70
     6
  9
$SPLINESEGS
 70
     8
  9
$HANDSEED
  5
1598
  9
$SURFTAB1
 70
     6
  9
$SURFTAB2
 70
     6
  9
$SURFTYPE
 70
     6
  9
$SURFU
 70
     6
  9
$SURFV
 70
     6
  9
$UCSBASE
  2

  9
$UCSNAME
  2

  9
$UCSORG
 10
0.0
 20
0.0
 30
0.0
  9
$UCSXDIR
 10
1.0
 20
0.0
 30
0.0
  9
$UCSYDIR
 10
0.0
 20
1.0
 30
0.0
  9
$UCSORTHOREF
  2

  9
$UCSORTHOVIEW
 70
     0
  9
$UCSORGTOP
 10
0.0
 20
0.0
 30
0.0
  9
$UCSORGBOTTOM
 10
0.0
 20
0.0
 30
0.0
  9
$UCSORGLEFT
 10
0.0
 20
0.0
 30
0.0
  9
$UCSORGRIGHT
 10
0.0
 20
0.0
 30
0.0
  9
$UCSORGFRONT
 10
0.0
 20
0.0
 30
0.0
  9
$UCSORGBACK
 10
0.0
 20
0.0
 30
0.0
  9
$PUCSBASE
  2

  9
$PUCSNAME
  2

  9
$PUCSORG
 10
0.0
 20
0.0
 30
0.0
  9
$PUCSXDIR
 10
1.0
 20
0.0
 30
0.0
  9
$PUCSYDIR
 10
0.0
 20
1.0
 30
0.0
  9
$PUCSORTHOREF
  2

  9
$PUCSORTHOVIEW
 70
     0
  9
$PUCSORGTOP
 10
0.0
 20
0.0
 30
0.0
  9
$PUCSORGBOTTOM
 10
0.0
 20
0.0
 30
0.0
  9
$PUCSORGLEFT
 10
0.0
 20
0.0
 30
0.0
  9
$PUCSORGRIGHT
 10
0.0
 20
0.0
 30
0.0
  9
$PUCSORGFRONT
 10
0.0
 20
0.0
 30
0.0
  9
$PUCSORGBACK
 10
0.0
 20
0.0
 30
0.0
  9
$USERI1
 70
     0
  9
$USERI2
 70
     0
  9
$USERI3
 70
     0
  9
$USERI4
 70
     0
  9
$USERI5
 70
     0
  9
$USERR1
 40
0.0
  9
$USERR2
 40
0.0
  9
$USERR3
 40
0.0
  9
$USERR4
 40
0.0
  9
$USERR5
 40
0.0
  9
$WORLDVIEW
 70
     1
  9
$SHADEDGE
 70
     3
  9
$SHADEDIF
 70
    70
  9
$TILEMODE
 70
     1
  9
$MAXACTVP
 70
    64
  9
$PINSBASE
 10
0.0
 20
0.0
 30
0.0
  9
$PLIMCHECK
 70
     0
  9
$PEXTMIN
 10
1.000000000000000E+20
 20
1.000000000000000E+20
 30
1.000000000000000E+20
  9
$PEXTMAX
 10
-1.000000000000000E+20
 20
-1.000000000000000E+20
 30
-1.000000000000000E+20
  9
$PLIMMIN
 10
0.0
 20
0.0
  9
$PLIMMAX
 10
12.0
 20
9.0
  9
$UNITMODE
 70
     0
  9
$VISRETAIN
 70
     1
  9
$PLINEGEN
 70
     0
  9
$PSLTSCALE
 70
     1
  9
$TREEDEPTH
 70
  3020
  9
$CMLSTYLE
  2
Standard
  9
$CMLJUST
 70
     0
  9
$CMLSCALE
 40
1.0
  9
$PROXYGRAPHICS
 70
     1
  9
$MEASUREMENT
 70
     0
  9
$CELWEIGHT
370
    -1
  9
$ENDCAPS
280
     0
  9
$JOINSTYLE
280
     0
  9
$LWDISPLAY
290
     0
  9
$INSUNITS
 70
     0
  9
$HYPERLINKBASE
  1

  9
$STYLESHEET
  1

  9
$XEDIT
290
     0
  9
$CEPSNTYPE
380
     0
  9
$PSTYLEMODE
290
     1
  9
$FINGERPRINTGUID
  2
{74A0E8A8-4E82-4033-98F7-44AF4FC0EA7E}
  9
$VERSIONGUID
  2
{FAEB1C32-E019-11D5-929B-00C0DF256EC4}
  9
$EXTNAMES
290
     1
  9
$PSVPSCALE
 40
0.0
  9
$OLESTARTUP
290
     0
  9
$SORTENTS
280
   127
  9
$INDEXCTL
280
     0
  9
$HIDETEXT
280
     1
  9
$XCLIPFRAME
290
     0
  9
$HALOGAP
280
     0
  9
$OBSCOLOR
 70
   257
  9
$OBSLTYPE
280
     0
  9
$INTERSECTIONDISPLAY
280
     0
  9
$INTERSECTIONCOLOR
 70
   257
  9
$DIMASSOC
280
     2
  9
$PROJECTNAME
  1

  9
$CAMERADISPLAY
290
     0
  9
$LENSLENGTH
 40
50.0
  9
$CAMERAHEIGHT
 40
0.0
  9
$STEPSPERSEC
 40
2.0
  9
$STEPSIZE
 40
6.0
  9
$3DDWFPREC
 40
2.0
  9
$PSOLWIDTH
 40
0.25
  9
$PSOLHEIGHT
 40
4.0
  9
$LOFTANG1
 40
1.570796326794897
  9
$LOFTANG2
 40
1.570796326794897
  9
$LOFTMAG1
 40
0.0
  9
$LOFTMAG2
 40
0.0
  9
$LOFTPARAM
 70
     7
  9
$LOFTNORMALS
280
     1
  9
$LATITUDE
 40
37.795
  9
$LONGITUDE
 40
-122.394
  9
$NORTHDIRECTION
 40
0.0
  9
$TIMEZONE
 70
 -8000
  9
$LIGHTGLYPHDISPLAY
280
     1
  9
$TILEMODELIGHTSYNCH
280
     1
  9
$SOLIDHIST
280
     1
  9
$SHOWHIST
280
     1
  9
$DWFFRAME
280
     2
  9
$DGNFRAME
280
     2
  9
$REALWORLDSCALE
290
     1
  9
$INTERFERECOLOR
 62
   256
  9
$CSHADOW
280
     0
  9
$SHADOWPLANELOCATION
 40
0.0
  0
ENDSEC
  0
SECTION
  2
CLASSES
  0
CLASS
  1
ACDBDICTIONARYWDFLT
  2
AcDbDictionaryWithDefault
  3
ObjectDBX Classes
 90
        0
 91
        4
280
     0
281
     0
  0
CLASS
  1
ACDBPLACEHOLDER
  2
AcDbPlaceHolder
  3
ObjectDBX Classes
 90
        0
 91
        1
280
     0
281
     0
  0
CLASS
  1
LAYOUT
  2
AcDbLayout
  3
ObjectDBX Classes
 90
        0
 91
        1
280
     0
281
     0
  0
CLASS
  1
DICTIONARYVAR
  2
AcDbDictionaryVar
  3
ObjectDBX Classes
 90
        0
 91
        4
280
     0
281
     0
  0
CLASS
  1
TABLESTYLE
  2
AcDbTableStyle
  3
ObjectDBX Classes
 90
     4095
 91
        4
280
     0
281
     0
  0
CLASS
  1
SCALE
  2
AcDbScale
  3
ObjectDBX Classes
 90
     1153
 91
        4
280
     0
281
     0
  0
ENDSEC
  0
SECTION
  2
TABLES
  0
TABLE
  2
VPORT
  5
8
330
0
100
AcDbSymbolTable
 70
     2
  0
VPORT
  5
97
330
8
100
AcDbSymbolTableRecord
100
AcDbViewportTableRecord
  2
*Active
 70
     0
 10
0.0
 20
0.0
 11
1.0
 21
1.0
 12
64037.23212154031
 22
321.6107045844159
 13
0.0
 23
0.0
 14
0.5
 24
0.5
 15
0.5
 25
0.5
 16
0.0
 26
0.0
 36
1.0
 17
0.0
 27
0.0
 37
0.0
 40
2498.078381173756
 41
1.972972972850329
 42
50.0
 43
0.0
 44
0.0
 50
0.0
 51
0.0
 71
    16
 72
   100
 73
     1
 74
     3
 75
     0
 76
     0
 77
     0
 78
     0
281
     0
 65
     0
110
0.0
120
0.0
130
0.0
111
1.0
121
0.0
131
0.0
112
0.0
122
1.0
132
0.0
 79
     0
146
0.0
 60
     3
 61
     5
292
     1
282
     1
141
0.0
142
0.0
 63
   256
  0
ENDTAB
  0
TABLE
  2
LTYPE
  5
5
330
0
100
AcDbSymbolTable
 70
    13
  0
LTYPE
  5
14
330
5
100
AcDbSymbolTableRecord
100
AcDbLinetypeTableRecord
  2
ByBlock
 70
     0
  3

 72
    65
 73
     0
 40
0.0
  0
LTYPE
  5
15
330
5
100
AcDbSymbolTableRecord
100
AcDbLinetypeTableRecord
  2
ByLayer
 70
     0
  3

 72
    65
 73
     0
 40
0.0
  0
LTYPE
  5
16
330
5
100
AcDbSymbolTableRecord
100
AcDbLinetypeTableRecord
  2
Continuous
 70
     0
  3
Solid line
 72
    65
 73
     0
 40
0.0
  0
LTYPE
  5
1581
330
5
100
AcDbSymbolTableRecord
100
AcDbLinetypeTableRecord
  2
DASHED
 70
     0
  3
__ __ __ __ __ __ __ __ __ __ __ __ __ __ __
 72
    65
 73
     2
 40
0.75
 49
0.5
 74
     4
 75
     0
340
0
 46
1.0
 50
0.0
 44
0.0
 45
0.0
 49
-0.25
 74
     4
 75
     0
340
0
 46
1.0
 50
0.0
 44
0.0
 45
0.0
  0
LTYPE
  5
1582
330
5
100
AcDbSymbolTableRecord
100
AcDbLinetypeTableRecord
  2
HIDDEN
 70
     0
  3
_ _ _ _ _ _ _ _ _ _ _ _ _ _ _ _ _ _ _ _ _ _ _
 72
    65
 73
     2
 40
0.375
 49
0.25
 74
     4
 75
     0
340
0
 46
1.0
 50
0.0
 44
0.0
 45
0.0
 49
-0.125
 74
     4
 75
     0
340
0
 46
1.0
 50
0.0
 44
0.0
 45
0.0
  0
LTYPE
  5
1583
330
5
100
AcDbSymbolTableRecord
100
AcDbLinetypeTableRecord
  2
CENTER
 70
     0
  3
____ _ ____ _ ____ _ ____ _ ____ _ ____ _ ____
 72
    65
 73
     4
 40
2.0
 49
1.25
 74
     4
 75
     0
340
0
 46
1.0
 50
0.0
 44
0.0
 45
0.0
 49
-0.25
 74
     4
 75
     0
340
0
 46
1.0
 50
0.0
 44
0.0
 45
0.0
 49
0.25
 74
     4
 75
     0
340
0
 46
1.0
 50
0.0
 44
0.0
 45
0.0
 49
-0.25
 74
     4
 75
     0
340
0
 46
1.0
 50
0.0
 44
0.0
 45
0.0
  0
LTYPE
  5
1584
330
5
100
AcDbSymbolTableRecord
100
AcDbLinetypeTableRecord
  2
PHANTOM
 70
     0
  3
_____ _ _ _____ _ _ _____ _ _ _____ _ _ ____
 72
    65
 73
     6
 40
2.5
 49
1.25
 74
     4
 75
     0
340
0
 46
1.0
 50
0.0
 44
0.0
 45
0.0
 49
-0.25
 74
     4
 75
     0
340
0
 46
1.0
 50
0.0
 44
0.0
 45
0.0
 49
0.25
 74
     4
 75
     0
340
0
 46
1.0
 50
0.0
 44
0.0
 45
0.0
 49
-0.25
 74
     4
 75
     0
340
0
 46
1.0
 50
0.0
 44
0.0
 45
0.0
 49
0.25
 74
     4
 75
     0
340
0
 46
1.0
 50
0.0
 44
0.0
 45
0.0
 49
-0.25
 74
     4
 75
     0
340
0
 46
1.0
 50
0.0
 44
0.0
 45
0.0
  0
LTYPE
  5
1585
330
5
100
AcDbSymbolTableRecord
100
AcDbLinetypeTableRecord
  2
DOT
 70
     0
  3
...............................................
 72
    65
 73
     2
 40
0.25
 49
0.0
 74
     4
 75
     0
340
0
 46
1.0
 50
0.0
 44
0.0
 45
0.0
 49
-0.25
 74
     4
 75
     0
340
0
 46
1.0
 50
0.0
 44
0.0
 45
0.0
  0
LTYPE
  5
1586
330
5
100
AcDbSymbolTableRecord
100
AcDbLinetypeTableRecord
  2
DASHDOT
 70
     0
  3
__ . __ . __ . __ . __ . __ . __ . __ . __ . __
 72
    65
 73
     4
 40
1.0
 49
0.5
 74
     4
 75
     0
340
0
 46
1.0
 50
0.0
 44
0.0
 45
0.0
 49
-0.25
 74
     4
 75
     0
340
0
 46
1.0
 50
0.0
 44
0.0
 45
0.0
 49
0.0
 74
     4
 75
     0
340
0
 46
1.0
 50
0.0
 44
0.0
 45
0.0
 49
-0.25
 74
     4
 75
     0
340
0
 46
1.0
 50
0.0
 44
0.0
 45
0.0
  0
LTYPE
  5
1587
330
5
100
AcDbSymbolTableRecord
100
AcDbLinetypeTableRecord
  2
BORDER
 70
     0
  3
__ __ . __ __ . __ __ . __ __ . __ __ . __ __
 72
    65
 73
     6
 40
1.75
 49
0.5
 74
     4
 75
     0
340
0
 46
1.0
 50
0.0
 44
0.0
 45
0.0
 49
-0.25
 74
     4
 75
     0
340
0
 46
1.0
 50
0.0
 44
0.0
 45
0.0
 49
0.5
 74
     4
 75
     0
340
0
 46
1.0
 50
0.0
 44
0.0
 45
0.0
 49
-0.25
 74
     4
 75
     0
340
0
 46
1.0
 50
0.0
 44
0.0
 45
0.0
 49
0.0
 74
     4
 75
     0
340
0
 46
1.0
 50
0.0
 44
0.0
 45
0.0
 49
-0.25
 74
     4
 75
     0
340
0
 46
1.0
 50
0.0
 44
0.0
 45
0.0
  0
LTYPE
  5
1588
330
5
100
AcDbSymbolTableRecord
100
AcDbLinetypeTableRecord
  2
DIVIDE
 70
     0
  3
__ . . __ . . __ . . __ . . __ . . __ . . __
 72
    65
 73
     6
 40
1.25
 49
0.5
 74
     4
 75
     0
340
0
 46
1.0
 50
0.0
 44
0.0
 45
0.0
 49
-0.25
 74
     4
 75
     0
340
0
 46
1.0
 50
0.0
 44
0.0
 45
0.0
 49
0.0
 74
     4
 75
     0
340
0
 46
1.0
 50
0.0
 44
0.0
 45
0.0
 49
-0.25
 74
     4
 75
     0
340
0
 46
1.0
 50
0.0
 44
0.0
 45
0.0
 49
0.0
 74
     4
 75
     0
340
0
 46
1.0
 50
0.0
 44
0.0
 45
0.0
 49
-0.25
 74
     4
 75
     0
340
0
 46
1.0
 50
0.0
 44
0.0
 45
0.0
  0
LTYPE
  5
1589
330
5
100
AcDbSymbolTableRecord
100
AcDbLinetypeTableRecord
  2
DCTYPE1
 70
     0
  3
__ . . __ . . __ . . __ . . __ . . __ . . __
 72
    65
 73
     8
 40
2.0
 49
0.5
 74
     4
 75
     0
340
0
 46
1.0
 50
0.0
 44
0.0
 45
0.0
 49
-0.25
 74
     4
 75
     0
340
0
 46
1.0
 50
0.0
 44
0.0
 45
0.0
 49
0.125
 74
     4
 75
     0
340
0
 46
1.0
 50
0.0
 44
0.0
 45
0.0
 49
-0.25
 74
     4
 75
     0
340
0
 46
1.0
 50
0.0
 44
0.0
 45
0.0
 49
0.25
 74
     4
 75
     0
340
0
 46
1.0
 50
0.0
 44
0.0
 45
0.0
 49
-0.25
 74
     4
 75
     0
340
0
 46
1.0
 50
0.0
 44
0.0
 45
0.0
 49
0.125
 74
     4
 75
     0
340
0
 46
1.0
 50
0.0
 44
0.0
 45
0.0
 49
-0.25
 74
     4
 75
     0
340
0
 46
1.0
 50
0.0
 44
0.0
 45
0.0
  0
LTYPE
  5
158A
330
5
100
AcDbSymbolTableRecord
100
AcDbLinetypeTableRecord
  2
DCTYPE2
 70
     0
  3
__ . . __ . . __ . . __ . . __ . . __ . . __
 72
    65
 73
     6
 40
2.05
 49
1.0
 74
     4
 75
     0
340
0
 46
1.0
 50
0.0
 44
0.0
 45
0.0
 49
-0.3
 74
     4
 75
     0
340
0
 46
1.0
 50
0.0
 44
0.0
 45
0.0
 49
0.15
 74
     4
 75
     0
340
0
 46
1.0
 50
0.0
 44
0.0
 45
0.0
 49
-0.15
 74
     4
 75
     0
340
0
 46
1.0
 50
0.0
 44
0.0
 45
0.0
 49
0.15
 74
     4
 75
     0
340
0
 46
1.0
 50
0.0
 44
0.0
 45
0.0
 49
-0.3
 74
     4
 75
     0
340
0
 46
1.0
 50
0.0
 44
0.0
 45
0.0
  0
LTYPE
  5
158B
330
5
100
AcDbSymbolTableRecord
100
AcDbLinetypeTableRecord
  2
DCTYPE3
 70
     0
  3
__ . . __ . . __ . . __ . . __ . . __ . . __
 72
    65
 73
     6
 40
2.5
 49
0.8
 74
     4
 75
     0
340
0
 46
1.0
 50
0.0
 44
0.0
 45
0.0
 49
-0.2
 74
     4
 75
     0
340
0
 46
1.0
 50
0.0
 44
0.0
 45
0.0
 49
0.8
 74
     4
 75
     0
340
0
 46
1.0
 50
0.0
 44
0.0
 45
0.0
 49
-0.2
 74
     4
 75
     0
340
0
 46
1.0
 50
0.0
 44
0.0
 45
0.0
 49
0.3
 74
     4
 75
     0
340
0
 46
1.0
 50
0.0
 44
0.0
 45
0.0
 49
-0.2
 74
     4
 75
     0
340
0
 46
1.0
 50
0.0
 44
0.0
 45
0.0
  0
LTYPE
  5
158C
330
5
100
AcDbSymbolTableRecord
100
AcDbLinetypeTableRecord
  2
DCTYPE4
 70
     0
  3
__ . . __ . . __ . . __ . . __ . . __ . . __
 72
    65
 73
    10
 40
3.969999999999999
 49
1.75
 74
     4
 75
     0
340
0
 46
1.0
 50
0.0
 44
0.0
 45
0.0
 49
-0.3
 74
     4
 75
     0
340
0
 46
1.0
 50
0.0
 44
0.0
 45
0.0
 49
0.3
 74
     4
 75
     0
340
0
 46
1.0
 50
0.0
 44
0.0
 45
0.0
 49
-0.3
 74
     4
 75
     0
340
0
 46
1.0
 50
0.0
 44
0.0
 45
0.0
 49
0.06
 74
     4
 75
     0
340
0
 46
1.0
 50
0.0
 44
0.0
 45
0.0
 49
-0.3
 74
     4
 75
     0
340
0
 46
1.0
 50
0.0
 44
0.0
 45
0.0
 49
0.06
 74
     4
 75
     0
340
0
 46
1.0
 50
0.0
 44
0.0
 45
0.0
 49
-0.3
 74
     4
 75
     0
340
0
 46
1.0
 50
0.0
 44
0.0
 45
0.0
 49
0.3
 74
     4
 75
     0
340
0
 46
1.0
 50
0.0
 44
0.0
 45
0.0
 49
-0.3
 74
     4
 75
     0
340
0
 46
1.0
 50
0.0
 44
0.0
 45
0.0
  0
ENDTAB
  0
TABLE
  2
LAYER
  5
2
330
0
100
AcDbSymbolTable
 70
     3
  0
LAYER
  5
10
330
2
100
AcDbSymbolTableRecord
100
AcDbLayerTableRecord
  2
0
 70
     0
 62
     7
  6
Continuous
370
    -3
390
F
347
0
  0
LAYER
  5
2E
330
2
100
AcDbSymbolTableRecord
100
AcDbLayerTableRecord
  2
LAYER4
 70
     0
 62
     7
  6
Continuous
370
    -3
390
F
347
0
  0
LAYER
  5
2F
330
2
100
AcDbSymbolTableRecord
100
AcDbLayerTableRecord
  2
LAYER5
 70
     0
 62
     7
  6
Continuous
370
    -3
390
F
347
0
  0
ENDTAB
  0
TABLE
  2
STYLE
  5
3
330
0
100
AcDbSymbolTable
 70
     2
  0
STYLE
  5
11
330
3
100
AcDbSymbolTableRecord
100
AcDbTextStyleTableRecord
  2
Standard
 70
     0
 40
0.0
 41
1.0
 50
0.0
 71
     0
 42
0.2
  3
txt
  4

  0
STYLE
  5
157C
330
3
100
AcDbSymbolTableRecord
100
AcDbTextStyleTableRecord
  2
_TCW_TXTSTY_4
 70
     0
 40
0.0
 41
0.41
 50
0.0
 71
     0
 42
16.0
  3
TXT.SHX
  4

  0
ENDTAB
  0
TABLE
  2
VIEW
  5
6
330
0
100
AcDbSymbolTable
 70
     0
  0
ENDTAB
  0
TABLE
  2
UCS
  5
7
330
0
100
AcDbSymbolTable
 70
     0
  0
ENDTAB
  0
TABLE
  2
APPID
  5
9
330
0
100
AcDbSymbolTable
 70
     2
  0
APPID
  5
12
330
9
100
AcDbSymbolTableRecord
100
AcDbRegAppTableRecord
  2
ACAD
 70
     0
  0
APPID
  5
1580
330
9
100
AcDbSymbolTableRecord
100
AcDbRegAppTableRecord
  2
TCAD
 70
     0
  0
ENDTAB
  0
TABLE
  2
DIMSTYLE
  5
A
330
0
100
AcDbSymbolTable
 70
     1
100
AcDbDimStyleTable
  0
DIMSTYLE
105
27
330
A
100
AcDbSymbolTableRecord
100
AcDbDimStyleTableRecord
  2
Standard
 70
     0
340
11
  0
ENDTAB
  0
TABLE
  2
BLOCK_RECORD
  5
1
330
0
100
AcDbSymbolTable
 70
     0
  0
BLOCK_RECORD
  5
1F
102
{ACAD_XDICTIONARY
360
1595
102
}
330
1
100
AcDbSymbolTableRecord
100
AcDbBlockTableRecord
  2
*Model_Space
340
22
 70
     0
280
     1
281
     0
  0
BLOCK_RECORD
  5
73
330
1
100
AcDbSymbolTableRecord
100
AcDbBlockTableRecord
  2
*Paper_Space
340
74
 70
     0
280
     1
281
     0
  0
ENDTAB
  0
ENDSEC
  0
SECTION
  2
BLOCKS
  0
BLOCK
  5
20
330
1F
100
AcDbEntity
  8
0
100
AcDbBlockBegin
  2
*Model_Space
 70
     0
 10
0.0
 20
0.0
 30
0.0
  3
*Model_Space
  1

  0
ENDBLK
  5
21
330
1F
100
AcDbEntity
  8
0
100
AcDbBlockEnd
  0
BLOCK
  5
75
330
73
100
AcDbEntity
 67
     1
  8
0
100
AcDbBlockBegin
  2
*Paper_Space
 70
     0
 10
0.0
 20
0.0
 30
0.0
  3
*Paper_Space
  1

  0
ENDBLK
  5
76
330
73
100
AcDbEntity
 67
     1
  8
0
100
AcDbBlockEnd
  0
ENDSEC
  0
SECTION
  2
ENTITIES
  0
LWPOLYLINE
  5
31
330
1F
100
AcDbEntity
  8
0
  6
Continuous
 62
     7
100
AcDbPolyline
 90
        5
 70
     0
 43
0.0
 10
64739.4428
 20
979.6251
 10
64739.4428
 20
789.6246
 10
65129.4442
 20
789.6246
 10
65129.4442
 20
979.6251
 10
64739.4428
 20
979.6251
  0
LWPOLYLINE
  5
38
330
1F
100
AcDbEntity
  8
0
  6
Continuous
 62
     7
100
AcDbPolyline
 90
        5
 70
     0
 43
0.0
 10
64339.4506
 20
979.6251
 10
64339.4506
 20
789.6246
 10
64729.4519
 20
789.6246
 10
64729.4519
 20
979.6251
 10
64339.4506
 20
979.6251
  0
LWPOLYLINE
  5
3F
330
1F
100
AcDbEntity
  8
0
  6
Continuous
 62
     7
100
AcDbPolyline
 90
        5
 70
     0
 43
0.0
 10
64539.4629
 20
1179.6252
 10
64539.4629
 20
989.6251
 10
64929.4642
 20
989.6251
 10
64929.4642
 20
1179.6252
 10
64539.4629
 20
1179.6252
  0
LWPOLYLINE
  5
46
330
1F
100
AcDbEntity
  8
0
  6
Continuous
 62
     7
100
AcDbPolyline
 90
        5
 70
     0
 43
0.0
 10
64139.4707
 20
1179.6252
 10
64139.4707
 20
989.6251
 10
64529.4558
 20
989.6232
 10
64529.4558
 20
1179.6232
 10
64139.4707
 20
1179.6252
  0
LWPOLYLINE
  5
4D
330
1F
100
AcDbEntity
  8
0
  6
Continuous
 62
     7
100
AcDbPolyline
 90
        5
 70
     0
 43
0.0
 10
64139.4707
 20
979.6251
 10
64139.4707
 20
789.6246
 10
64329.4597
 20
789.6246
 10
64329.4597
 20
979.6251
 10
64139.4707
 20
979.6251
  0
LWPOLYLINE
  5
54
330
1F
100
AcDbEntity
  8
0
  6
Continuous
 62
     7
100
AcDbPolyline
 90
        5
 70
     0
 43
0.0
 10
63924.4558
 20
789.6228
 10
63924.4558
 20
979.6232
 10
63534.4545
 20
979.6251
 10
63534.4545
 20
789.6246
 10
63924.4558
 20
789.6228
  0
LWPOLYLINE
  5
5B
330
1F
100
AcDbEntity
  8
0
  6
Continuous
 62
     7
100
AcDbPolyline
 90
        5
 70
     0
 43
0.0
 10
64124.4681
 20
989.6251
 10
64124.4681
 20
1179.6252
 10
63734.4668
 20
1179.6252
 10
63734.4668
 20
989.6251
 10
64124.4681
 20
989.6251
  0
LWPOLYLINE
  5
62
330
1F
100
AcDbEntity
  8
0
  6
Continuous
 62
     7
100
AcDbPolyline
 90
        5
 70
     0
 43
0.0
 10
64124.4681
 20
789.6246
 10
64124.4681
 20
979.6251
 10
63934.4468
 20
979.6251
 10
63934.4468
 20
789.6246
 10
64124.4681
 20
789.6246
  0
LWPOLYLINE
  5
69
330
1F
100
AcDbEntity
  8
0
  6
Continuous
 62
     7
100
AcDbPolyline
 90
        3
 70
     0
 43
0.0
 10
65139.4674
 20
979.6251
 10
65139.4674
 20
789.6246
 10
65256.4484
 20
789.6246
  0
LWPOLYLINE
  5
6E
330
1F
100
AcDbEntity
  8
0
  6
Continuous
 62
     7
100
AcDbPolyline
 90
        2
 70
     0
 43
0.0
 10
65256.4484
 20
979.6251
 10
65139.4674
 20
979.6251
  0
LWPOLYLINE
  5
72
330
1F
100
AcDbEntity
  8
0
  6
Continuous
 62
     7
100
AcDbPolyline
 90
        3
 70
     0
 43
0.0
 10
64939.4551
 20
1179.6232
 10
64939.4551
 20
989.6232
 10
65256.4484
 20
989.6251
  0
LWPOLYLINE
  5
77
330
1F
100
AcDbEntity
  8
0
  6
Continuous
 62
     7
100
AcDbPolyline
 90
        2
 70
     0
 43
0.0
 10
65256.4484
 20
1179.6242
 10
64939.4551
 20
1179.6222
  0
LWPOLYLINE
  5
7B
330
1F
100
AcDbEntity
  8
0
  6
Continuous
 62
     7
100
AcDbPolyline
 90
        3
 70
     0
 43
0.0
 10
63724.4436
 20
989.6251
 10
63724.4436
 20
1179.6252
 10
63444.4555
 20
1179.6232
  0
LWPOLYLINE
  5
80
330
1F
100
AcDbEntity
  8
0
  6
Continuous
 62
     7
100
AcDbPolyline
 90
        2
 70
     0
 43
0.0
 10
63444.4555
 20
989.6222
 10
63724.4436
 20
989.6251
  0
LWPOLYLINE
  5
84
330
1F
100
AcDbEntity
  8
0
  6
Continuous
 62
     7
100
AcDbPolyline
 90
        3
 70
     0
 43
0.0
 10
63524.4636
 20
789.6246
 10
63524.4636
 20
979.6251
 10
63444.4555
 20
979.6232
  0
LWPOLYLINE
  5
89
330
1F
100
AcDbEntity
  8
0
  6
Continuous
 62
     7
100
AcDbPolyline
 90
        2
 70
     0
 43
0.0
 10
63444.4555
 20
789.6228
 10
63524.4636
 20
789.6246
  0
LWPOLYLINE
  5
8D
330
1F
100
AcDbEntity
  8
0
  6
Continuous
 62
     7
100
AcDbPolyline
 90
        2
 70
     0
 43
0.0
 10
64539.4629
 20
779.6246
 10
64539.4629
 20
619.6244
  0
LWPOLYLINE
  5
91
330
1F
100
AcDbEntity
  8
0
  6
Continuous
 62
     7
100
AcDbPolyline
 90
        3
 70
     0
 43
0.0
 10
64929.4642
 20
619.6244
 10
64929.4642
 20
779.6246
 10
64539.4629
 20
779.6246
  0
LWPOLYLINE
  5
96
330
1F
100
AcDbEntity
  8
0
  6
Continuous
 62
     7
100
AcDbPolyline
 90
        2
 70
     0
 43
0.0
 10
64139.4545
 20
779.6228
 10
64139.4545
 20
619.6227
  0
LWPOLYLINE
  5
158D
330
1F
100
AcDbEntity
  8
0
  6
Continuous
 62
     7
100
AcDbPolyline
 90
        3
 70
     0
 43
0.0
 10
64529.4558
 20
619.6227
 10
64529.4558
 20
779.6228
 10
64139.4545
 20
779.6228
  0
LWPOLYLINE
  5
158E
330
1F
100
AcDbEntity
  8
0
  6
Continuous
 62
     7
100
AcDbPolyline
 90
        4
 70
     0
 43
0.0
 10
64124.4681
 20
619.6244
 10
64124.4681
 20
779.6246
 10
63734.4668
 20
779.6246
 10
63734.4668
 20
619.6244
  0
LWPOLYLINE
  5
158F
330
1F
100
AcDbEntity
  8
0
  6
Continuous
 62
     7
100
AcDbPolyline
 90
        2
 70
     0
 43
0.0
 10
64939.4551
 20
779.6228
 10
64939.4551
 20
619.6227
  0
LWPOLYLINE
  5
1590
330
1F
100
AcDbEntity
  8
0
  6
Continuous
 62
     7
100
AcDbPolyline
 90
        3
 70
     0
 43
0.0
 10
63724.4436
 20
619.6244
 10
63724.4436
 20
779.6246
 10
63444.4555
 20
779.6228
  0
LWPOLYLINE
  5
1591
330
1F
100
AcDbEntity
  8
0
  6
Continuous
 62
     7
100
AcDbPolyline
 90
        2
 70
     0
 43
0.0
 10
64124.1852
 20
898.624
 10
64124.8642
 20
898.624
  0
LWPOLYLINE
  5
1592
330
1F
100
AcDbEntity
  8
0
  6
Continuous
 62
     7
100
AcDbPolyline
 90
        2
 70
     0
 43
0.0
 10
64130.9671
 20
898.624
 10
64131.6461
 20
898.624
  0
LWPOLYLINE
  5
1593
330
1F
100
AcDbEntity
  8
0
  6
Continuous
 62
     7
100
AcDbPolyline
 90
        2
 70
     0
 43
0.0
 10
64137.7489
 20
898.624
 10
64138.4279
 20
898.624
  0
LWPOLYLINE
  5
1594
330
1F
100
AcDbEntity
  8
0
  6
Continuous
 62
     7
100
AcDbPolyline
 90
        2
 70
     0
 43
0.0
 10
64127.5761
 20
902.0155
 10
64128.2551
 20
902.0155
  0
LWPOLYLINE
  5
BE
330
1F
100
AcDbEntity
  8
0
  6
Continuous
 62
     7
100
AcDbPolyline
 90
        2
 70
     0
 43
0.0
 10
64134.358
 20
902.0155
 10
64135.037
 20
902.0155
  0
LWPOLYLINE
  5
C2
330
1F
100
AcDbEntity
  8
0
  6
Continuous
 62
     7
100
AcDbPolyline
 90
        2
 70
     0
 43
0.0
 10
64124.1812
 20
905.4069
 10
64124.8602
 20
905.4069
  0
LWPOLYLINE
  5
C6
330
1F
100
AcDbEntity
  8
0
  6
Continuous
 62
     7
100
AcDbPolyline
 90
        2
 70
     0
 43
0.0
 10
64130.963
 20
905.4069
 10
64131.642
 20
905.4069
  0
LWPOLYLINE
  5
CA
330
1F
100
AcDbEntity
  8
0
  6
Continuous
 62
     7
100
AcDbPolyline
 90
        2
 70
     0
 43
0.0
 10
64137.7449
 20
905.4069
 10
64138.4239
 20
905.4069
  0
LWPOLYLINE
  5
CE
330
1F
100
AcDbEntity
  8
0
  6
Continuous
 62
     7
100
AcDbPolyline
 90
        2
 70
     0
 43
0.0
 10
64127.5721
 20
908.7983
 10
64128.2511
 20
908.7983
  0
LWPOLYLINE
  5
D2
330
1F
100
AcDbEntity
  8
0
  6
Continuous
 62
     7
100
AcDbPolyline
 90
        2
 70
     0
 43
0.0
 10
64134.354
 20
908.7983
 10
64135.0329
 20
908.7983
  0
LWPOLYLINE
  5
D6
330
1F
100
AcDbEntity
  8
0
  6
Continuous
 62
     7
100
AcDbPolyline
 90
        2
 70
     0
 43
0.0
 10
64124.1812
 20
912.1898
 10
64124.8602
 20
912.1898
  0
LWPOLYLINE
  5
DA
330
1F
100
AcDbEntity
  8
0
  6
Continuous
 62
     7
100
AcDbPolyline
 90
        2
 70
     0
 43
0.0
 10
64130.963
 20
912.1898
 10
64131.642
 20
912.1898
  0
LWPOLYLINE
  5
DE
330
1F
100
AcDbEntity
  8
0
  6
Continuous
 62
     7
100
AcDbPolyline
 90
        2
 70
     0
 43
0.0
 10
64137.7449
 20
912.1898
 10
64138.4239
 20
912.1898
  0
LWPOLYLINE
  5
E2
330
1F
100
AcDbEntity
  8
0
  6
Continuous
 62
     7
100
AcDbPolyline
 90
        2
 70
     0
 43
0.0
 10
64127.5721
 20
915.5812
 10
64128.2511
 20
915.5812
  0
LWPOLYLINE
  5
E6
330
1F
100
AcDbEntity
  8
0
  6
Continuous
 62
     7
100
AcDbPolyline
 90
        2
 70
     0
 43
0.0
 10
64134.354
 20
915.5812
 10
64135.0329
 20
915.5812
  0
LWPOLYLINE
  5
EA
330
1F
100
AcDbEntity
  8
0
  6
Continuous
 62
     7
100
AcDbPolyline
 90
        2
 70
     0
 43
0.0
 10
64124.1812
 20
918.9726
 10
64124.8602
 20
918.9726
  0
LWPOLYLINE
  5
EE
330
1F
100
AcDbEntity
  8
0
  6
Continuous
 62
     7
100
AcDbPolyline
 90
        2
 70
     0
 43
0.0
 10
64130.963
 20
918.9726
 10
64131.642
 20
918.9726
  0
LWPOLYLINE
  5
F2
330
1F
100
AcDbEntity
  8
0
  6
Continuous
 62
     7
100
AcDbPolyline
 90
        2
 70
     0
 43
0.0
 10
64137.7449
 20
918.9726
 10
64138.4239
 20
918.9726
  0
LWPOLYLINE
  5
F6
330
1F
100
AcDbEntity
  8
0
  6
Continuous
 62
     7
100
AcDbPolyline
 90
        2
 70
     0
 43
0.0
 10
64127.5721
 20
922.3641
 10
64128.2511
 20
922.3641
  0
LWPOLYLINE
  5
FA
330
1F
100
AcDbEntity
  8
0
  6
Continuous
 62
     7
100
AcDbPolyline
 90
        2
 70
     0
 43
0.0
 10
64134.354
 20
922.3641
 10
64135.0329
 20
922.3641
  0
LWPOLYLINE
  5
FE
330
1F
100
AcDbEntity
  8
0
  6
Continuous
 62
     7
100
AcDbPolyline
 90
        2
 70
     0
 43
0.0
 10
64124.1812
 20
925.7555
 10
64124.8602
 20
925.7555
  0
LWPOLYLINE
  5
102
330
1F
100
AcDbEntity
  8
0
  6
Continuous
 62
     7
100
AcDbPolyline
 90
        2
 70
     0
 43
0.0
 10
64130.963
 20
925.7555
 10
64131.642
 20
925.7555
  0
LWPOLYLINE
  5
106
330
1F
100
AcDbEntity
  8
0
  6
Continuous
 62
     7
100
AcDbPolyline
 90
        2
 70
     0
 43
0.0
 10
64137.7449
 20
925.7555
 10
64138.4239
 20
925.7555
  0
LWPOLYLINE
  5
10A
330
1F
100
AcDbEntity
  8
0
  6
Continuous
 62
     7
100
AcDbPolyline
 90
        2
 70
     0
 43
0.0
 10
64127.5721
 20
929.1469
 10
64128.2511
 20
929.1469
  0
LWPOLYLINE
  5
10E
330
1F
100
AcDbEntity
  8
0
  6
Continuous
 62
     7
100
AcDbPolyline
 90
        2
 70
     0
 43
0.0
 10
64134.354
 20
929.1469
 10
64135.0329
 20
929.1469
  0
LWPOLYLINE
  5
112
330
1F
100
AcDbEntity
  8
0
  6
Continuous
 62
     7
100
AcDbPolyline
 90
        2
 70
     0
 43
0.0
 10
64124.1771
 20
932.5384
 10
64124.8561
 20
932.5384
  0
LWPOLYLINE
  5
116
330
1F
100
AcDbEntity
  8
0
  6
Continuous
 62
     7
100
AcDbPolyline
 90
        2
 70
     0
 43
0.0
 10
64130.959
 20
932.5384
 10
64131.638
 20
932.5384
  0
LWPOLYLINE
  5
11A
330
1F
100
AcDbEntity
  8
0
  6
Continuous
 62
     7
100
AcDbPolyline
 90
        2
 70
     0
 43
0.0
 10
64137.7408
 20
932.5384
 10
64138.4198
 20
932.5384
  0
LWPOLYLINE
  5
11E
330
1F
100
AcDbEntity
  8
0
  6
Continuous
 62
     7
100
AcDbPolyline
 90
        2
 70
     0
 43
0.0
 10
64127.5681
 20
935.9298
 10
64128.247
 20
935.9298
  0
LWPOLYLINE
  5
122
330
1F
100
AcDbEntity
  8
0
  6
Continuous
 62
     7
100
AcDbPolyline
 90
        2
 70
     0
 43
0.0
 10
64134.3499
 20
935.9298
 10
64135.0289
 20
935.9298
  0
LWPOLYLINE
  5
126
330
1F
100
AcDbEntity
  8
0
  6
Continuous
 62
     7
100
AcDbPolyline
 90
        2
 70
     0
 43
0.0
 10
64124.1771
 20
939.3212
 10
64124.8561
 20
939.3212
  0
LWPOLYLINE
  5
12A
330
1F
100
AcDbEntity
  8
0
  6
Continuous
 62
     7
100
AcDbPolyline
 90
        2
 70
     0
 43
0.0
 10
64130.959
 20
939.3212
 10
64131.638
 20
939.3212
  0
LWPOLYLINE
  5
12E
330
1F
100
AcDbEntity
  8
0
  6
Continuous
 62
     7
100
AcDbPolyline
 90
        2
 70
     0
 43
0.0
 10
64137.7408
 20
939.3212
 10
64138.4198
 20
939.3212
  0
LWPOLYLINE
  5
132
330
1F
100
AcDbEntity
  8
0
  6
Continuous
 62
     7
100
AcDbPolyline
 90
        2
 70
     0
 43
0.0
 10
64127.5681
 20
942.7127
 10
64128.247
 20
942.7127
  0
LWPOLYLINE
  5
136
330
1F
100
AcDbEntity
  8
0
  6
Continuous
 62
     7
100
AcDbPolyline
 90
        2
 70
     0
 43
0.0
 10
64134.3499
 20
942.7127
 10
64135.0289
 20
942.7127
  0
LWPOLYLINE
  5
13A
330
1F
100
AcDbEntity
  8
0
  6
Continuous
 62
     7
100
AcDbPolyline
 90
        2
 70
     0
 43
0.0
 10
64124.1771
 20
946.1041
 10
64124.8561
 20
946.1041
  0
LWPOLYLINE
  5
13E
330
1F
100
AcDbEntity
  8
0
  6
Continuous
 62
     7
100
AcDbPolyline
 90
        2
 70
     0
 43
0.0
 10
64130.959
 20
946.1041
 10
64131.638
 20
946.1041
  0
LWPOLYLINE
  5
142
330
1F
100
AcDbEntity
  8
0
  6
Continuous
 62
     7
100
AcDbPolyline
 90
        2
 70
     0
 43
0.0
 10
64137.7408
 20
946.1041
 10
64138.4198
 20
946.1041
  0
LWPOLYLINE
  5
146
330
1F
100
AcDbEntity
  8
0
  6
Continuous
 62
     7
100
AcDbPolyline
 90
        2
 70
     0
 43
0.0
 10
64127.5681
 20
949.4955
 10
64128.247
 20
949.4955
  0
LWPOLYLINE
  5
14A
330
1F
100
AcDbEntity
  8
0
  6
Continuous
 62
     7
100
AcDbPolyline
 90
        2
 70
     0
 43
0.0
 10
64134.3499
 20
949.4955
 10
64135.0289
 20
949.4955
  0
LWPOLYLINE
  5
14E
330
1F
100
AcDbEntity
  8
0
  6
Continuous
 62
     7
100
AcDbPolyline
 90
        2
 70
     0
 43
0.0
 10
64124.1771
 20
952.887
 10
64124.8561
 20
952.887
  0
LWPOLYLINE
  5
152
330
1F
100
AcDbEntity
  8
0
  6
Continuous
 62
     7
100
AcDbPolyline
 90
        2
 70
     0
 43
0.0
 10
64130.959
 20
952.887
 10
64131.638
 20
952.887
  0
LWPOLYLINE
  5
156
330
1F
100
AcDbEntity
  8
0
  6
Continuous
 62
     7
100
AcDbPolyline
 90
        2
 70
     0
 43
0.0
 10
64137.7408
 20
952.887
 10
64138.4198
 20
952.887
  0
LWPOLYLINE
  5
15A
330
1F
100
AcDbEntity
  8
0
  6
Continuous
 62
     7
100
AcDbPolyline
 90
        2
 70
     0
 43
0.0
 10
64127.5681
 20
956.2784
 10
64128.247
 20
956.2784
  0
LWPOLYLINE
  5
15E
330
1F
100
AcDbEntity
  8
0
  6
Continuous
 62
     7
100
AcDbPolyline
 90
        2
 70
     0
 43
0.0
 10
64134.3499
 20
956.2784
 10
64135.0289
 20
956.2784
  0
LWPOLYLINE
  5
162
330
1F
100
AcDbEntity
  8
0
  6
Continuous
 62
     7
100
AcDbPolyline
 90
        2
 70
     0
 43
0.0
 10
64124.1731
 20
959.6698
 10
64124.8521
 20
959.6698
  0
LWPOLYLINE
  5
166
330
1F
100
AcDbEntity
  8
0
  6
Continuous
 62
     7
100
AcDbPolyline
 90
        2
 70
     0
 43
0.0
 10
64130.9549
 20
959.6698
 10
64131.6339
 20
959.6698
  0
LWPOLYLINE
  5
16A
330
1F
100
AcDbEntity
  8
0
  6
Continuous
 62
     7
100
AcDbPolyline
 90
        2
 70
     0
 43
0.0
 10
64137.7368
 20
959.6698
 10
64138.4158
 20
959.6698
  0
LWPOLYLINE
  5
16E
330
1F
100
AcDbEntity
  8
0
  6
Continuous
 62
     7
100
AcDbPolyline
 90
        2
 70
     0
 43
0.0
 10
64127.564
 20
963.0613
 10
64128.243
 20
963.0613
  0
LWPOLYLINE
  5
172
330
1F
100
AcDbEntity
  8
0
  6
Continuous
 62
     7
100
AcDbPolyline
 90
        2
 70
     0
 43
0.0
 10
64134.3459
 20
963.0613
 10
64135.0249
 20
963.0613
  0
LWPOLYLINE
  5
176
330
1F
100
AcDbEntity
  8
0
  6
Continuous
 62
     7
100
AcDbPolyline
 90
        2
 70
     0
 43
0.0
 10
64124.1731
 20
966.4527
 10
64124.8521
 20
966.4527
  0
LWPOLYLINE
  5
17A
330
1F
100
AcDbEntity
  8
0
  6
Continuous
 62
     7
100
AcDbPolyline
 90
        2
 70
     0
 43
0.0
 10
64130.9549
 20
966.4527
 10
64131.6339
 20
966.4527
  0
LWPOLYLINE
  5
17E
330
1F
100
AcDbEntity
  8
0
  6
Continuous
 62
     7
100
AcDbPolyline
 90
        2
 70
     0
 43
0.0
 10
64137.7368
 20
966.4527
 10
64138.4158
 20
966.4527
  0
LWPOLYLINE
  5
182
330
1F
100
AcDbEntity
  8
0
  6
Continuous
 62
     7
100
AcDbPolyline
 90
        2
 70
     0
 43
0.0
 10
64127.564
 20
969.8441
 10
64128.243
 20
969.8441
  0
LWPOLYLINE
  5
186
330
1F
100
AcDbEntity
  8
0
  6
Continuous
 62
     7
100
AcDbPolyline
 90
        2
 70
     0
 43
0.0
 10
64134.3459
 20
969.8441
 10
64135.0249
 20
969.8441
  0
LWPOLYLINE
  5
18A
330
1F
100
AcDbEntity
  8
0
  6
Continuous
 62
     7
100
AcDbPolyline
 90
        2
 70
     0
 43
0.0
 10
64124.1731
 20
973.2356
 10
64124.8521
 20
973.2356
  0
LWPOLYLINE
  5
18E
330
1F
100
AcDbEntity
  8
0
  6
Continuous
 62
     7
100
AcDbPolyline
 90
        2
 70
     0
 43
0.0
 10
64130.9549
 20
973.2356
 10
64131.6339
 20
973.2356
  0
LWPOLYLINE
  5
192
330
1F
100
AcDbEntity
  8
0
  6
Continuous
 62
     7
100
AcDbPolyline
 90
        2
 70
     0
 43
0.0
 10
64137.7368
 20
973.2356
 10
64138.4158
 20
973.2356
  0
LWPOLYLINE
  5
196
330
1F
100
AcDbEntity
  8
0
  6
Continuous
 62
     7
100
AcDbPolyline
 90
        2
 70
     0
 43
0.0
 10
64127.564
 20
976.627
 10
64128.243
 20
976.627
  0
LWPOLYLINE
  5
19A
330
1F
100
AcDbEntity
  8
0
  6
Continuous
 62
     7
100
AcDbPolyline
 90
        2
 70
     0
 43
0.0
 10
64134.3459
 20
976.627
 10
64135.0249
 20
976.627
  0
LWPOLYLINE
  5
19E
330
1F
100
AcDbEntity
  8
0
  6
Continuous
 62
     7
100
AcDbPolyline
 90
        2
 70
     0
 43
0.0
 10
64124.1731
 20
980.0184
 10
64124.8521
 20
980.0184
  0
LWPOLYLINE
  5
1A2
330
1F
100
AcDbEntity
  8
0
  6
Continuous
 62
     7
100
AcDbPolyline
 90
        2
 70
     0
 43
0.0
 10
64130.9549
 20
980.0184
 10
64131.6339
 20
980.0184
  0
LWPOLYLINE
  5
1A6
330
1F
100
AcDbEntity
  8
0
  6
Continuous
 62
     7
100
AcDbPolyline
 90
        2
 70
     0
 43
0.0
 10
64137.7368
 20
980.0184
 10
64138.4158
 20
980.0184
  0
LWPOLYLINE
  5
1AA
330
1F
100
AcDbEntity
  8
0
  6
Continuous
 62
     7
100
AcDbPolyline
 90
        2
 70
     0
 43
0.0
 10
64127.564
 20
983.4099
 10
64128.243
 20
983.4099
  0
LWPOLYLINE
  5
1AE
330
1F
100
AcDbEntity
  8
0
  6
Continuous
 62
     7
100
AcDbPolyline
 90
        2
 70
     0
 43
0.0
 10
64134.3459
 20
983.4099
 10
64135.0249
 20
983.4099
  0
LWPOLYLINE
  5
1B2
330
1F
100
AcDbEntity
  8
0
  6
Continuous
 62
     7
100
AcDbPolyline
 90
        2
 70
     0
 43
0.0
 10
64124.169
 20
986.8013
 10
64124.848
 20
986.8013
  0
LWPOLYLINE
  5
1B6
330
1F
100
AcDbEntity
  8
0
  6
Continuous
 62
     7
100
AcDbPolyline
 90
        2
 70
     0
 43
0.0
 10
64130.9509
 20
986.8013
 10
64131.6299
 20
986.8013
  0
LWPOLYLINE
  5
1BA
330
1F
100
AcDbEntity
  8
0
  6
Continuous
 62
     7
100
AcDbPolyline
 90
        2
 70
     0
 43
0.0
 10
64137.7328
 20
986.8013
 10
64138.4117
 20
986.8013
  0
LWPOLYLINE
  5
1BE
330
1F
100
AcDbEntity
  8
0
  6
Continuous
 62
     7
100
AcDbPolyline
 90
        2
 70
     0
 43
0.0
 10
64127.56
 20
990.1928
 10
64128.239
 20
990.1928
  0
LWPOLYLINE
  5
1C2
330
1F
100
AcDbEntity
  8
0
  6
Continuous
 62
     7
100
AcDbPolyline
 90
        2
 70
     0
 43
0.0
 10
64134.3418
 20
990.1928
 10
64135.0208
 20
990.1928
  0
LWPOLYLINE
  5
1C6
330
1F
100
AcDbEntity
  8
0
  6
Continuous
 62
     7
100
AcDbPolyline
 90
        2
 70
     0
 43
0.0
 10
64124.169
 20
993.5842
 10
64124.848
 20
993.5842
  0
LWPOLYLINE
  5
1CA
330
1F
100
AcDbEntity
  8
0
  6
Continuous
 62
     7
100
AcDbPolyline
 90
        2
 70
     0
 43
0.0
 10
64130.9509
 20
993.5842
 10
64131.6299
 20
993.5842
  0
LWPOLYLINE
  5
1CE
330
1F
100
AcDbEntity
  8
0
  6
Continuous
 62
     7
100
AcDbPolyline
 90
        2
 70
     0
 43
0.0
 10
64137.7328
 20
993.5842
 10
64138.4117
 20
993.5842
  0
LWPOLYLINE
  5
1D2
330
1F
100
AcDbEntity
  8
0
  6
Continuous
 62
     7
100
AcDbPolyline
 90
        2
 70
     0
 43
0.0
 10
64127.56
 20
996.9756
 10
64128.239
 20
996.9756
  0
LWPOLYLINE
  5
1D6
330
1F
100
AcDbEntity
  8
0
  6
Continuous
 62
     7
100
AcDbPolyline
 90
        2
 70
     0
 43
0.0
 10
64134.3418
 20
996.9756
 10
64135.0208
 20
996.9756
  0
LWPOLYLINE
  5
1DA
330
1F
100
AcDbEntity
  8
0
  6
Continuous
 62
     7
100
AcDbPolyline
 90
        2
 70
     0
 43
0.0
 10
64124.169
 20
1000.3671
 10
64124.848
 20
1000.3671
  0
LWPOLYLINE
  5
1DE
330
1F
100
AcDbEntity
  8
0
  6
Continuous
 62
     7
100
AcDbPolyline
 90
        2
 70
     0
 43
0.0
 10
64130.9509
 20
1000.3671
 10
64131.6299
 20
1000.3671
  0
LWPOLYLINE
  5
1E2
330
1F
100
AcDbEntity
  8
0
  6
Continuous
 62
     7
100
AcDbPolyline
 90
        2
 70
     0
 43
0.0
 10
64137.7328
 20
1000.3671
 10
64138.4117
 20
1000.3671
  0
LWPOLYLINE
  5
1E6
330
1F
100
AcDbEntity
  8
0
  6
Continuous
 62
     7
100
AcDbPolyline
 90
        2
 70
     0
 43
0.0
 10
64127.56
 20
1003.7585
 10
64128.239
 20
1003.7585
  0
LWPOLYLINE
  5
1EA
330
1F
100
AcDbEntity
  8
0
  6
Continuous
 62
     7
100
AcDbPolyline
 90
        2
 70
     0
 43
0.0
 10
64134.3418
 20
1003.7585
 10
64135.0208
 20
1003.7585
  0
LWPOLYLINE
  5
1EE
330
1F
100
AcDbEntity
  8
0
  6
Continuous
 62
     7
100
AcDbPolyline
 90
        2
 70
     0
 43
0.0
 10
64124.169
 20
1007.1499
 10
64124.848
 20
1007.1499
  0
LWPOLYLINE
  5
1F2
330
1F
100
AcDbEntity
  8
0
  6
Continuous
 62
     7
100
AcDbPolyline
 90
        2
 70
     0
 43
0.0
 10
64130.9509
 20
1007.1499
 10
64131.6299
 20
1007.1499
  0
LWPOLYLINE
  5
1F6
330
1F
100
AcDbEntity
  8
0
  6
Continuous
 62
     7
100
AcDbPolyline
 90
        2
 70
     0
 43
0.0
 10
64137.7328
 20
1007.1499
 10
64138.4117
 20
1007.1499
  0
LWPOLYLINE
  5
1FA
330
1F
100
AcDbEntity
  8
0
  6
Continuous
 62
     7
100
AcDbPolyline
 90
        2
 70
     0
 43
0.0
 10
64127.56
 20
1010.5414
 10
64128.239
 20
1010.5414
  0
LWPOLYLINE
  5
1FE
330
1F
100
AcDbEntity
  8
0
  6
Continuous
 62
     7
100
AcDbPolyline
 90
        2
 70
     0
 43
0.0
 10
64134.3418
 20
1010.5414
 10
64135.0208
 20
1010.5414
  0
LWPOLYLINE
  5
202
330
1F
100
AcDbEntity
  8
0
  6
Continuous
 62
     7
100
AcDbPolyline
 90
        2
 70
     0
 43
0.0
 10
64124.165
 20
1013.9327
 10
64124.844
 20
1013.9327
  0
LWPOLYLINE
  5
206
330
1F
100
AcDbEntity
  8
0
  6
Continuous
 62
     7
100
AcDbPolyline
 90
        2
 70
     0
 43
0.0
 10
64130.9469
 20
1013.9327
 10
64131.6258
 20
1013.9327
  0
LWPOLYLINE
  5
20A
330
1F
100
AcDbEntity
  8
0
  6
Continuous
 62
     7
100
AcDbPolyline
 90
        2
 70
     0
 43
0.0
 10
64137.7287
 20
1013.9327
 10
64138.4077
 20
1013.9327
  0
LWPOLYLINE
  5
20E
330
1F
100
AcDbEntity
  8
0
  6
Continuous
 62
     7
100
AcDbPolyline
 90
        2
 70
     0
 43
0.0
 10
64127.5559
 20
1017.3242
 10
64128.2349
 20
1017.3242
  0
LWPOLYLINE
  5
212
330
1F
100
AcDbEntity
  8
0
  6
Continuous
 62
     7
100
AcDbPolyline
 90
        2
 70
     0
 43
0.0
 10
64134.3378
 20
1017.3242
 10
64135.0168
 20
1017.3242
  0
LWPOLYLINE
  5
216
330
1F
100
AcDbEntity
  8
0
  6
Continuous
 62
     7
100
AcDbPolyline
 90
        2
 70
     0
 43
0.0
 10
64124.165
 20
1020.7157
 10
64124.844
 20
1020.7157
  0
LWPOLYLINE
  5
21A
330
1F
100
AcDbEntity
  8
0
  6
Continuous
 62
     7
100
AcDbPolyline
 90
        2
 70
     0
 43
0.0
 10
64130.9469
 20
1020.7157
 10
64131.6258
 20
1020.7157
  0
LWPOLYLINE
  5
21E
330
1F
100
AcDbEntity
  8
0
  6
Continuous
 62
     7
100
AcDbPolyline
 90
        2
 70
     0
 43
0.0
 10
64137.7287
 20
1020.7157
 10
64138.4077
 20
1020.7157
  0
LWPOLYLINE
  5
222
330
1F
100
AcDbEntity
  8
0
  6
Continuous
 62
     7
100
AcDbPolyline
 90
        2
 70
     0
 43
0.0
 10
64127.5559
 20
1024.107
 10
64128.2349
 20
1024.107
  0
LWPOLYLINE
  5
226
330
1F
100
AcDbEntity
  8
0
  6
Continuous
 62
     7
100
AcDbPolyline
 90
        2
 70
     0
 43
0.0
 10
64134.3378
 20
1024.107
 10
64135.0168
 20
1024.107
  0
LWPOLYLINE
  5
22A
330
1F
100
AcDbEntity
  8
0
  6
Continuous
 62
     7
100
AcDbPolyline
 90
        2
 70
     0
 43
0.0
 10
64124.165
 20
1027.4985
 10
64124.844
 20
1027.4985
  0
LWPOLYLINE
  5
22E
330
1F
100
AcDbEntity
  8
0
  6
Continuous
 62
     7
100
AcDbPolyline
 90
        2
 70
     0
 43
0.0
 10
64130.9469
 20
1027.4985
 10
64131.6258
 20
1027.4985
  0
LWPOLYLINE
  5
232
330
1F
100
AcDbEntity
  8
0
  6
Continuous
 62
     7
100
AcDbPolyline
 90
        2
 70
     0
 43
0.0
 10
64137.7287
 20
1027.4985
 10
64138.4077
 20
1027.4985
  0
LWPOLYLINE
  5
236
330
1F
100
AcDbEntity
  8
0
  6
Continuous
 62
     7
100
AcDbPolyline
 90
        2
 70
     0
 43
0.0
 10
64127.5559
 20
1030.89
 10
64128.2349
 20
1030.89
  0
LWPOLYLINE
  5
23A
330
1F
100
AcDbEntity
  8
0
  6
Continuous
 62
     7
100
AcDbPolyline
 90
        2
 70
     0
 43
0.0
 10
64134.3378
 20
1030.89
 10
64135.0168
 20
1030.89
  0
LWPOLYLINE
  5
23E
330
1F
100
AcDbEntity
  8
0
  6
Continuous
 62
     7
100
AcDbPolyline
 90
        2
 70
     0
 43
0.0
 10
64124.165
 20
1034.2813
 10
64124.844
 20
1034.2813
  0
LWPOLYLINE
  5
242
330
1F
100
AcDbEntity
  8
0
  6
Continuous
 62
     7
100
AcDbPolyline
 90
        2
 70
     0
 43
0.0
 10
64130.9469
 20
1034.2813
 10
64131.6258
 20
1034.2813
  0
LWPOLYLINE
  5
246
330
1F
100
AcDbEntity
  8
0
  6
Continuous
 62
     7
100
AcDbPolyline
 90
        2
 70
     0
 43
0.0
 10
64137.7287
 20
1034.2813
 10
64138.4077
 20
1034.2813
  0
LWPOLYLINE
  5
24A
330
1F
100
AcDbEntity
  8
0
  6
Continuous
 62
     7
100
AcDbPolyline
 90
        2
 70
     0
 43
0.0
 10
64127.5559
 20
1037.6728
 10
64128.2349
 20
1037.6728
  0
LWPOLYLINE
  5
24E
330
1F
100
AcDbEntity
  8
0
  6
Continuous
 62
     7
100
AcDbPolyline
 90
        2
 70
     0
 43
0.0
 10
64134.3378
 20
1037.6728
 10
64135.0168
 20
1037.6728
  0
LWPOLYLINE
  5
252
330
1F
100
AcDbEntity
  8
0
  6
Continuous
 62
     7
100
AcDbPolyline
 90
        2
 70
     0
 43
0.0
 10
64124.165
 20
1041.0643
 10
64124.844
 20
1041.0643
  0
LWPOLYLINE
  5
256
330
1F
100
AcDbEntity
  8
0
  6
Continuous
 62
     7
100
AcDbPolyline
 90
        2
 70
     0
 43
0.0
 10
64130.9469
 20
1041.0643
 10
64131.6258
 20
1041.0643
  0
LWPOLYLINE
  5
25A
330
1F
100
AcDbEntity
  8
0
  6
Continuous
 62
     7
100
AcDbPolyline
 90
        2
 70
     0
 43
0.0
 10
64137.7287
 20
1041.0643
 10
64138.4077
 20
1041.0643
  0
LWPOLYLINE
  5
25E
330
1F
100
AcDbEntity
  8
0
  6
Continuous
 62
     7
100
AcDbPolyline
 90
        2
 70
     0
 43
0.0
 10
64127.5559
 20
1044.4556
 10
64128.2349
 20
1044.4556
  0
LWPOLYLINE
  5
262
330
1F
100
AcDbEntity
  8
0
  6
Continuous
 62
     7
100
AcDbPolyline
 90
        2
 70
     0
 43
0.0
 10
64134.3378
 20
1044.4556
 10
64135.0168
 20
1044.4556
  0
LWPOLYLINE
  5
266
330
1F
100
AcDbEntity
  8
0
  6
Continuous
 62
     7
100
AcDbPolyline
 90
        2
 70
     0
 43
0.0
 10
64124.161
 20
1047.8471
 10
64124.8399
 20
1047.8471
  0
LWPOLYLINE
  5
26A
330
1F
100
AcDbEntity
  8
0
  6
Continuous
 62
     7
100
AcDbPolyline
 90
        2
 70
     0
 43
0.0
 10
64130.9428
 20
1047.8471
 10
64131.6218
 20
1047.8471
  0
LWPOLYLINE
  5
26E
330
1F
100
AcDbEntity
  8
0
  6
Continuous
 62
     7
100
AcDbPolyline
 90
        2
 70
     0
 43
0.0
 10
64137.7247
 20
1047.8471
 10
64138.4037
 20
1047.8471
  0
LWPOLYLINE
  5
272
330
1F
100
AcDbEntity
  8
0
  6
Continuous
 62
     7
100
AcDbPolyline
 90
        2
 70
     0
 43
0.0
 10
64127.5519
 20
1051.2386
 10
64128.2309
 20
1051.2386
  0
LWPOLYLINE
  5
276
330
1F
100
AcDbEntity
  8
0
  6
Continuous
 62
     7
100
AcDbPolyline
 90
        2
 70
     0
 43
0.0
 10
64134.3337
 20
1051.2386
 10
64135.0127
 20
1051.2386
  0
LWPOLYLINE
  5
27A
330
1F
100
AcDbEntity
  8
0
  6
Continuous
 62
     7
100
AcDbPolyline
 90
        2
 70
     0
 43
0.0
 10
64124.161
 20
1054.6301
 10
64124.8399
 20
1054.6301
  0
LWPOLYLINE
  5
27E
330
1F
100
AcDbEntity
  8
0
  6
Continuous
 62
     7
100
AcDbPolyline
 90
        2
 70
     0
 43
0.0
 10
64130.9428
 20
1054.6301
 10
64131.6218
 20
1054.6301
  0
LWPOLYLINE
  5
282
330
1F
100
AcDbEntity
  8
0
  6
Continuous
 62
     7
100
AcDbPolyline
 90
        2
 70
     0
 43
0.0
 10
64137.7247
 20
1054.6301
 10
64138.4037
 20
1054.6301
  0
LWPOLYLINE
  5
286
330
1F
100
AcDbEntity
  8
0
  6
Continuous
 62
     7
100
AcDbPolyline
 90
        2
 70
     0
 43
0.0
 10
64127.5519
 20
1058.0214
 10
64128.2309
 20
1058.0214
  0
LWPOLYLINE
  5
28A
330
1F
100
AcDbEntity
  8
0
  6
Continuous
 62
     7
100
AcDbPolyline
 90
        2
 70
     0
 43
0.0
 10
64134.3337
 20
1058.0214
 10
64135.0127
 20
1058.0214
  0
LWPOLYLINE
  5
28E
330
1F
100
AcDbEntity
  8
0
  6
Continuous
 62
     7
100
AcDbPolyline
 90
        2
 70
     0
 43
0.0
 10
64124.161
 20
1061.4129
 10
64124.8399
 20
1061.4129
  0
LWPOLYLINE
  5
292
330
1F
100
AcDbEntity
  8
0
  6
Continuous
 62
     7
100
AcDbPolyline
 90
        2
 70
     0
 43
0.0
 10
64130.9428
 20
1061.4129
 10
64131.6218
 20
1061.4129
  0
LWPOLYLINE
  5
296
330
1F
100
AcDbEntity
  8
0
  6
Continuous
 62
     7
100
AcDbPolyline
 90
        2
 70
     0
 43
0.0
 10
64137.7247
 20
1061.4129
 10
64138.4037
 20
1061.4129
  0
LWPOLYLINE
  5
29A
330
1F
100
AcDbEntity
  8
0
  6
Continuous
 62
     7
100
AcDbPolyline
 90
        2
 70
     0
 43
0.0
 10
64127.5519
 20
1064.8043
 10
64128.2309
 20
1064.8043
  0
LWPOLYLINE
  5
29E
330
1F
100
AcDbEntity
  8
0
  6
Continuous
 62
     7
100
AcDbPolyline
 90
        2
 70
     0
 43
0.0
 10
64134.3337
 20
1064.8043
 10
64135.0127
 20
1064.8043
  0
LWPOLYLINE
  5
2A2
330
1F
100
AcDbEntity
  8
0
  6
Continuous
 62
     7
100
AcDbPolyline
 90
        2
 70
     0
 43
0.0
 10
64124.161
 20
1068.1958
 10
64124.8399
 20
1068.1958
  0
LWPOLYLINE
  5
2A6
330
1F
100
AcDbEntity
  8
0
  6
Continuous
 62
     7
100
AcDbPolyline
 90
        2
 70
     0
 43
0.0
 10
64130.9428
 20
1068.1958
 10
64131.6218
 20
1068.1958
  0
LWPOLYLINE
  5
2AA
330
1F
100
AcDbEntity
  8
0
  6
Continuous
 62
     7
100
AcDbPolyline
 90
        2
 70
     0
 43
0.0
 10
64137.7247
 20
1068.1958
 10
64138.4037
 20
1068.1958
  0
LWPOLYLINE
  5
2AE
330
1F
100
AcDbEntity
  8
0
  6
Continuous
 62
     7
100
AcDbPolyline
 90
        2
 70
     0
 43
0.0
 10
64127.5519
 20
1071.5872
 10
64128.2309
 20
1071.5872
  0
LWPOLYLINE
  5
2B2
330
1F
100
AcDbEntity
  8
0
  6
Continuous
 62
     7
100
AcDbPolyline
 90
        2
 70
     0
 43
0.0
 10
64134.3337
 20
1071.5872
 10
64135.0127
 20
1071.5872
  0
LWPOLYLINE
  5
2B6
330
1F
100
AcDbEntity
  8
0
  6
Continuous
 62
     7
100
AcDbPolyline
 90
        2
 70
     0
 43
0.0
 10
64124.1569
 20
1074.9786
 10
64124.8359
 20
1074.9786
  0
LWPOLYLINE
  5
2BA
330
1F
100
AcDbEntity
  8
0
  6
Continuous
 62
     7
100
AcDbPolyline
 90
        2
 70
     0
 43
0.0
 10
64130.9388
 20
1074.9786
 10
64131.6178
 20
1074.9786
  0
LWPOLYLINE
  5
2BE
330
1F
100
AcDbEntity
  8
0
  6
Continuous
 62
     7
100
AcDbPolyline
 90
        2
 70
     0
 43
0.0
 10
64137.7206
 20
1074.9786
 10
64138.3996
 20
1074.9786
  0
LWPOLYLINE
  5
2C2
330
1F
100
AcDbEntity
  8
0
  6
Continuous
 62
     7
100
AcDbPolyline
 90
        2
 70
     0
 43
0.0
 10
64127.5478
 20
1078.3701
 10
64128.2268
 20
1078.3701
  0
LWPOLYLINE
  5
2C6
330
1F
100
AcDbEntity
  8
0
  6
Continuous
 62
     7
100
AcDbPolyline
 90
        2
 70
     0
 43
0.0
 10
64134.3297
 20
1078.3701
 10
64135.0087
 20
1078.3701
  0
LWPOLYLINE
  5
2CA
330
1F
100
AcDbEntity
  8
0
  6
Continuous
 62
     7
100
AcDbPolyline
 90
        2
 70
     0
 43
0.0
 10
64124.1569
 20
1081.7615
 10
64124.8359
 20
1081.7615
  0
LWPOLYLINE
  5
2CE
330
1F
100
AcDbEntity
  8
0
  6
Continuous
 62
     7
100
AcDbPolyline
 90
        2
 70
     0
 43
0.0
 10
64130.9388
 20
1081.7615
 10
64131.6178
 20
1081.7615
  0
LWPOLYLINE
  5
2D2
330
1F
100
AcDbEntity
  8
0
  6
Continuous
 62
     7
100
AcDbPolyline
 90
        2
 70
     0
 43
0.0
 10
64137.7206
 20
1081.7615
 10
64138.3996
 20
1081.7615
  0
LWPOLYLINE
  5
2D6
330
1F
100
AcDbEntity
  8
0
  6
Continuous
 62
     7
100
AcDbPolyline
 90
        2
 70
     0
 43
0.0
 10
64127.5478
 20
1085.1529
 10
64128.2268
 20
1085.1529
  0
LWPOLYLINE
  5
2DA
330
1F
100
AcDbEntity
  8
0
  6
Continuous
 62
     7
100
AcDbPolyline
 90
        2
 70
     0
 43
0.0
 10
64134.3297
 20
1085.1529
 10
64135.0087
 20
1085.1529
  0
LWPOLYLINE
  5
2DE
330
1F
100
AcDbEntity
  8
0
  6
Continuous
 62
     7
100
AcDbPolyline
 90
        2
 70
     0
 43
0.0
 10
64124.1569
 20
1088.5444
 10
64124.8359
 20
1088.5444
  0
LWPOLYLINE
  5
2E2
330
1F
100
AcDbEntity
  8
0
  6
Continuous
 62
     7
100
AcDbPolyline
 90
        2
 70
     0
 43
0.0
 10
64130.9388
 20
1088.5444
 10
64131.6178
 20
1088.5444
  0
LWPOLYLINE
  5
2E6
330
1F
100
AcDbEntity
  8
0
  6
Continuous
 62
     7
100
AcDbPolyline
 90
        2
 70
     0
 43
0.0
 10
64137.7206
 20
1088.5444
 10
64138.3996
 20
1088.5444
  0
LWPOLYLINE
  5
2EA
330
1F
100
AcDbEntity
  8
0
  6
Continuous
 62
     7
100
AcDbPolyline
 90
        2
 70
     0
 43
0.0
 10
64127.5478
 20
1091.9358
 10
64128.2268
 20
1091.9358
  0
LWPOLYLINE
  5
2EE
330
1F
100
AcDbEntity
  8
0
  6
Continuous
 62
     7
100
AcDbPolyline
 90
        2
 70
     0
 43
0.0
 10
64134.3297
 20
1091.9358
 10
64135.0087
 20
1091.9358
  0
LWPOLYLINE
  5
2F2
330
1F
100
AcDbEntity
  8
0
  6
Continuous
 62
     7
100
AcDbPolyline
 90
        2
 70
     0
 43
0.0
 10
64124.1569
 20
1095.3272
 10
64124.8359
 20
1095.3272
  0
LWPOLYLINE
  5
2F6
330
1F
100
AcDbEntity
  8
0
  6
Continuous
 62
     7
100
AcDbPolyline
 90
        2
 70
     0
 43
0.0
 10
64130.9388
 20
1095.3272
 10
64131.6178
 20
1095.3272
  0
LWPOLYLINE
  5
2FA
330
1F
100
AcDbEntity
  8
0
  6
Continuous
 62
     7
100
AcDbPolyline
 90
        2
 70
     0
 43
0.0
 10
64137.7206
 20
1095.3272
 10
64138.3996
 20
1095.3272
  0
LWPOLYLINE
  5
2FE
330
1F
100
AcDbEntity
  8
0
  6
Continuous
 62
     7
100
AcDbPolyline
 90
        2
 70
     0
 43
0.0
 10
64127.5478
 20
1098.7187
 10
64128.2268
 20
1098.7187
  0
LWPOLYLINE
  5
302
330
1F
100
AcDbEntity
  8
0
  6
Continuous
 62
     7
100
AcDbPolyline
 90
        2
 70
     0
 43
0.0
 10
64134.3297
 20
1098.7187
 10
64135.0087
 20
1098.7187
  0
LWPOLYLINE
  5
306
330
1F
100
AcDbEntity
  8
0
  6
Continuous
 62
     7
100
AcDbPolyline
 90
        2
 70
     0
 43
0.0
 10
64124.1529
 20
1102.1101
 10
64124.8319
 20
1102.1101
  0
LWPOLYLINE
  5
30A
330
1F
100
AcDbEntity
  8
0
  6
Continuous
 62
     7
100
AcDbPolyline
 90
        2
 70
     0
 43
0.0
 10
64130.9347
 20
1102.1101
 10
64131.6137
 20
1102.1101
  0
LWPOLYLINE
  5
30E
330
1F
100
AcDbEntity
  8
0
  6
Continuous
 62
     7
100
AcDbPolyline
 90
        2
 70
     0
 43
0.0
 10
64137.7166
 20
1102.1101
 10
64138.3956
 20
1102.1101
  0
LWPOLYLINE
  5
312
330
1F
100
AcDbEntity
  8
0
  6
Continuous
 62
     7
100
AcDbPolyline
 90
        2
 70
     0
 43
0.0
 10
64127.5438
 20
1105.5015
 10
64128.2228
 20
1105.5015
  0
LWPOLYLINE
  5
316
330
1F
100
AcDbEntity
  8
0
  6
Continuous
 62
     7
100
AcDbPolyline
 90
        2
 70
     0
 43
0.0
 10
64134.3257
 20
1105.5015
 10
64135.0047
 20
1105.5015
  0
LWPOLYLINE
  5
31A
330
1F
100
AcDbEntity
  8
0
  6
Continuous
 62
     7
100
AcDbPolyline
 90
        2
 70
     0
 43
0.0
 10
64124.1529
 20
1108.893
 10
64124.8319
 20
1108.893
  0
LWPOLYLINE
  5
31E
330
1F
100
AcDbEntity
  8
0
  6
Continuous
 62
     7
100
AcDbPolyline
 90
        2
 70
     0
 43
0.0
 10
64130.9347
 20
1108.893
 10
64131.6137
 20
1108.893
  0
LWPOLYLINE
  5
322
330
1F
100
AcDbEntity
  8
0
  6
Continuous
 62
     7
100
AcDbPolyline
 90
        2
 70
     0
 43
0.0
 10
64137.7166
 20
1108.893
 10
64138.3956
 20
1108.893
  0
LWPOLYLINE
  5
326
330
1F
100
AcDbEntity
  8
0
  6
Continuous
 62
     7
100
AcDbPolyline
 90
        2
 70
     0
 43
0.0
 10
64127.5438
 20
1112.2844
 10
64128.2228
 20
1112.2844
  0
LWPOLYLINE
  5
32A
330
1F
100
AcDbEntity
  8
0
  6
Continuous
 62
     7
100
AcDbPolyline
 90
        2
 70
     0
 43
0.0
 10
64134.3257
 20
1112.2844
 10
64135.0047
 20
1112.2844
  0
LWPOLYLINE
  5
32E
330
1F
100
AcDbEntity
  8
0
  6
Continuous
 62
     7
100
AcDbPolyline
 90
        2
 70
     0
 43
0.0
 10
64124.1529
 20
1115.6758
 10
64124.8319
 20
1115.6758
  0
LWPOLYLINE
  5
332
330
1F
100
AcDbEntity
  8
0
  6
Continuous
 62
     7
100
AcDbPolyline
 90
        2
 70
     0
 43
0.0
 10
64130.9347
 20
1115.6758
 10
64131.6137
 20
1115.6758
  0
LWPOLYLINE
  5
336
330
1F
100
AcDbEntity
  8
0
  6
Continuous
 62
     7
100
AcDbPolyline
 90
        2
 70
     0
 43
0.0
 10
64137.7166
 20
1115.6758
 10
64138.3956
 20
1115.6758
  0
LWPOLYLINE
  5
33A
330
1F
100
AcDbEntity
  8
0
  6
Continuous
 62
     7
100
AcDbPolyline
 90
        2
 70
     0
 43
0.0
 10
64127.5438
 20
1119.0673
 10
64128.2228
 20
1119.0673
  0
LWPOLYLINE
  5
33E
330
1F
100
AcDbEntity
  8
0
  6
Continuous
 62
     7
100
AcDbPolyline
 90
        2
 70
     0
 43
0.0
 10
64134.3257
 20
1119.0673
 10
64135.0047
 20
1119.0673
  0
LWPOLYLINE
  5
342
330
1F
100
AcDbEntity
  8
0
  6
Continuous
 62
     7
100
AcDbPolyline
 90
        2
 70
     0
 43
0.0
 10
64124.1529
 20
1122.4587
 10
64124.8319
 20
1122.4587
  0
LWPOLYLINE
  5
346
330
1F
100
AcDbEntity
  8
0
  6
Continuous
 62
     7
100
AcDbPolyline
 90
        2
 70
     0
 43
0.0
 10
64130.9347
 20
1122.4587
 10
64131.6137
 20
1122.4587
  0
LWPOLYLINE
  5
34A
330
1F
100
AcDbEntity
  8
0
  6
Continuous
 62
     7
100
AcDbPolyline
 90
        2
 70
     0
 43
0.0
 10
64137.7166
 20
1122.4587
 10
64138.3956
 20
1122.4587
  0
LWPOLYLINE
  5
34E
330
1F
100
AcDbEntity
  8
0
  6
Continuous
 62
     7
100
AcDbPolyline
 90
        2
 70
     0
 43
0.0
 10
64127.5438
 20
1125.8501
 10
64128.2228
 20
1125.8501
  0
LWPOLYLINE
  5
352
330
1F
100
AcDbEntity
  8
0
  6
Continuous
 62
     7
100
AcDbPolyline
 90
        2
 70
     0
 43
0.0
 10
64134.3257
 20
1125.8501
 10
64135.0047
 20
1125.8501
  0
LWPOLYLINE
  5
356
330
1F
100
AcDbEntity
  8
0
  6
Continuous
 62
     7
100
AcDbPolyline
 90
        2
 70
     0
 43
0.0
 10
64124.1488
 20
1129.2416
 10
64124.8278
 20
1129.2416
  0
LWPOLYLINE
  5
35A
330
1F
100
AcDbEntity
  8
0
  6
Continuous
 62
     7
100
AcDbPolyline
 90
        2
 70
     0
 43
0.0
 10
64130.9307
 20
1129.2416
 10
64131.6097
 20
1129.2416
  0
LWPOLYLINE
  5
35E
330
1F
100
AcDbEntity
  8
0
  6
Continuous
 62
     7
100
AcDbPolyline
 90
        2
 70
     0
 43
0.0
 10
64137.7125
 20
1129.2416
 10
64138.3915
 20
1129.2416
  0
LWPOLYLINE
  5
362
330
1F
100
AcDbEntity
  8
0
  6
Continuous
 62
     7
100
AcDbPolyline
 90
        2
 70
     0
 43
0.0
 10
64127.5398
 20
1132.633
 10
64128.2188
 20
1132.633
  0
LWPOLYLINE
  5
366
330
1F
100
AcDbEntity
  8
0
  6
Continuous
 62
     7
100
AcDbPolyline
 90
        2
 70
     0
 43
0.0
 10
64134.3216
 20
1132.633
 10
64135.0006
 20
1132.633
  0
LWPOLYLINE
  5
36A
330
1F
100
AcDbEntity
  8
0
  6
Continuous
 62
     7
100
AcDbPolyline
 90
        2
 70
     0
 43
0.0
 10
64124.1488
 20
1136.0244
 10
64124.8278
 20
1136.0244
  0
LWPOLYLINE
  5
36E
330
1F
100
AcDbEntity
  8
0
  6
Continuous
 62
     7
100
AcDbPolyline
 90
        2
 70
     0
 43
0.0
 10
64130.9307
 20
1136.0244
 10
64131.6097
 20
1136.0244
  0
LWPOLYLINE
  5
372
330
1F
100
AcDbEntity
  8
0
  6
Continuous
 62
     7
100
AcDbPolyline
 90
        2
 70
     0
 43
0.0
 10
64137.7125
 20
1136.0244
 10
64138.3915
 20
1136.0244
  0
LWPOLYLINE
  5
376
330
1F
100
AcDbEntity
  8
0
  6
Continuous
 62
     7
100
AcDbPolyline
 90
        2
 70
     0
 43
0.0
 10
64127.5398
 20
1139.4159
 10
64128.2188
 20
1139.4159
  0
LWPOLYLINE
  5
37A
330
1F
100
AcDbEntity
  8
0
  6
Continuous
 62
     7
100
AcDbPolyline
 90
        2
 70
     0
 43
0.0
 10
64134.3216
 20
1139.4159
 10
64135.0006
 20
1139.4159
  0
LWPOLYLINE
  5
37E
330
1F
100
AcDbEntity
  8
0
  6
Continuous
 62
     7
100
AcDbPolyline
 90
        2
 70
     0
 43
0.0
 10
64124.1488
 20
1142.8073
 10
64124.8278
 20
1142.8073
  0
LWPOLYLINE
  5
382
330
1F
100
AcDbEntity
  8
0
  6
Continuous
 62
     7
100
AcDbPolyline
 90
        2
 70
     0
 43
0.0
 10
64130.9307
 20
1142.8073
 10
64131.6097
 20
1142.8073
  0
LWPOLYLINE
  5
386
330
1F
100
AcDbEntity
  8
0
  6
Continuous
 62
     7
100
AcDbPolyline
 90
        2
 70
     0
 43
0.0
 10
64137.7125
 20
1142.8073
 10
64138.3915
 20
1142.8073
  0
LWPOLYLINE
  5
38A
330
1F
100
AcDbEntity
  8
0
  6
Continuous
 62
     7
100
AcDbPolyline
 90
        2
 70
     0
 43
0.0
 10
64127.5398
 20
1146.1987
 10
64128.2188
 20
1146.1987
  0
LWPOLYLINE
  5
38E
330
1F
100
AcDbEntity
  8
0
  6
Continuous
 62
     7
100
AcDbPolyline
 90
        2
 70
     0
 43
0.0
 10
64134.3216
 20
1146.1987
 10
64135.0006
 20
1146.1987
  0
LWPOLYLINE
  5
392
330
1F
100
AcDbEntity
  8
0
  6
Continuous
 62
     7
100
AcDbPolyline
 90
        2
 70
     0
 43
0.0
 10
64124.1488
 20
1149.5902
 10
64124.8278
 20
1149.5902
  0
LWPOLYLINE
  5
396
330
1F
100
AcDbEntity
  8
0
  6
Continuous
 62
     7
100
AcDbPolyline
 90
        2
 70
     0
 43
0.0
 10
64130.9307
 20
1149.5902
 10
64131.6097
 20
1149.5902
  0
LWPOLYLINE
  5
39A
330
1F
100
AcDbEntity
  8
0
  6
Continuous
 62
     7
100
AcDbPolyline
 90
        2
 70
     0
 43
0.0
 10
64137.7125
 20
1149.5902
 10
64138.3915
 20
1149.5902
  0
LWPOLYLINE
  5
39E
330
1F
100
AcDbEntity
  8
0
  6
Continuous
 62
     7
100
AcDbPolyline
 90
        2
 70
     0
 43
0.0
 10
64127.5398
 20
1152.9816
 10
64128.2188
 20
1152.9816
  0
LWPOLYLINE
  5
3A2
330
1F
100
AcDbEntity
  8
0
  6
Continuous
 62
     7
100
AcDbPolyline
 90
        2
 70
     0
 43
0.0
 10
64134.3216
 20
1152.9816
 10
64135.0006
 20
1152.9816
  0
LWPOLYLINE
  5
3A6
330
1F
100
AcDbEntity
  8
0
  6
Continuous
 62
     7
100
AcDbPolyline
 90
        2
 70
     0
 43
0.0
 10
64124.1448
 20
1156.373
 10
64124.8238
 20
1156.373
  0
LWPOLYLINE
  5
3AA
330
1F
100
AcDbEntity
  8
0
  6
Continuous
 62
     7
100
AcDbPolyline
 90
        2
 70
     0
 43
0.0
 10
64130.9266
 20
1156.373
 10
64131.6056
 20
1156.373
  0
LWPOLYLINE
  5
3AE
330
1F
100
AcDbEntity
  8
0
  6
Continuous
 62
     7
100
AcDbPolyline
 90
        2
 70
     0
 43
0.0
 10
64137.7085
 20
1156.373
 10
64138.3875
 20
1156.373
  0
LWPOLYLINE
  5
3B2
330
1F
100
AcDbEntity
  8
0
  6
Continuous
 62
     7
100
AcDbPolyline
 90
        2
 70
     0
 43
0.0
 10
64127.5357
 20
1159.7645
 10
64128.2147
 20
1159.7645
  0
LWPOLYLINE
  5
3B6
330
1F
100
AcDbEntity
  8
0
  6
Continuous
 62
     7
100
AcDbPolyline
 90
        2
 70
     0
 43
0.0
 10
64134.3176
 20
1159.7645
 10
64134.9966
 20
1159.7645
  0
LWPOLYLINE
  5
3BA
330
1F
100
AcDbEntity
  8
0
  6
Continuous
 62
     7
100
AcDbPolyline
 90
        2
 70
     0
 43
0.0
 10
64124.1448
 20
1163.1559
 10
64124.8238
 20
1163.1559
  0
LWPOLYLINE
  5
3BE
330
1F
100
AcDbEntity
  8
0
  6
Continuous
 62
     7
100
AcDbPolyline
 90
        2
 70
     0
 43
0.0
 10
64130.9266
 20
1163.1559
 10
64131.6056
 20
1163.1559
  0
LWPOLYLINE
  5
3C2
330
1F
100
AcDbEntity
  8
0
  6
Continuous
 62
     7
100
AcDbPolyline
 90
        2
 70
     0
 43
0.0
 10
64137.7085
 20
1163.1559
 10
64138.3875
 20
1163.1559
  0
LWPOLYLINE
  5
3C6
330
1F
100
AcDbEntity
  8
0
  6
Continuous
 62
     7
100
AcDbPolyline
 90
        2
 70
     0
 43
0.0
 10
64127.5357
 20
1166.5473
 10
64128.2147
 20
1166.5473
  0
LWPOLYLINE
  5
3CA
330
1F
100
AcDbEntity
  8
0
  6
Continuous
 62
     7
100
AcDbPolyline
 90
        2
 70
     0
 43
0.0
 10
64134.3176
 20
1166.5473
 10
64134.9966
 20
1166.5473
  0
LWPOLYLINE
  5
3CE
330
1F
100
AcDbEntity
  8
0
  6
Continuous
 62
     7
100
AcDbPolyline
 90
        2
 70
     0
 43
0.0
 10
64124.1448
 20
1169.9388
 10
64124.8238
 20
1169.9388
  0
LWPOLYLINE
  5
3D2
330
1F
100
AcDbEntity
  8
0
  6
Continuous
 62
     7
100
AcDbPolyline
 90
        2
 70
     0
 43
0.0
 10
64130.9266
 20
1169.9388
 10
64131.6056
 20
1169.9388
  0
LWPOLYLINE
  5
3D6
330
1F
100
AcDbEntity
  8
0
  6
Continuous
 62
     7
100
AcDbPolyline
 90
        2
 70
     0
 43
0.0
 10
64137.7085
 20
1169.9388
 10
64138.3875
 20
1169.9388
  0
LWPOLYLINE
  5
3DA
330
1F
100
AcDbEntity
  8
0
  6
Continuous
 62
     7
100
AcDbPolyline
 90
        2
 70
     0
 43
0.0
 10
64127.5357
 20
1173.3302
 10
64128.2147
 20
1173.3302
  0
LWPOLYLINE
  5
3DE
330
1F
100
AcDbEntity
  8
0
  6
Continuous
 62
     7
100
AcDbPolyline
 90
        2
 70
     0
 43
0.0
 10
64134.3176
 20
1173.3302
 10
64134.9966
 20
1173.3302
  0
LWPOLYLINE
  5
3E2
330
1F
100
AcDbEntity
  8
0
  6
Continuous
 62
     7
100
AcDbPolyline
 90
        2
 70
     0
 43
0.0
 10
64124.1448
 20
1176.7217
 10
64124.8238
 20
1176.7217
  0
LWPOLYLINE
  5
3E6
330
1F
100
AcDbEntity
  8
0
  6
Continuous
 62
     7
100
AcDbPolyline
 90
        2
 70
     0
 43
0.0
 10
64130.9266
 20
1176.7217
 10
64131.6056
 20
1176.7217
  0
LWPOLYLINE
  5
3EA
330
1F
100
AcDbEntity
  8
0
  6
Continuous
 62
     7
100
AcDbPolyline
 90
        2
 70
     0
 43
0.0
 10
64137.7085
 20
1176.7217
 10
64138.3875
 20
1176.7217
  0
LWPOLYLINE
  5
3EE
330
1F
100
AcDbEntity
  8
0
  6
Continuous
 62
     7
100
AcDbPolyline
 90
        2
 70
     0
 43
0.0
 10
64127.5357
 20
1180.1131
 10
64128.2147
 20
1180.1131
  0
LWPOLYLINE
  5
3F2
330
1F
100
AcDbEntity
  8
0
  6
Continuous
 62
     7
100
AcDbPolyline
 90
        2
 70
     0
 43
0.0
 10
64134.3176
 20
1180.1131
 10
64134.9966
 20
1180.1131
  0
LWPOLYLINE
  5
3F6
330
1F
100
AcDbEntity
  8
0
  6
Continuous
 62
     7
100
AcDbPolyline
 90
        2
 70
     0
 43
0.0
 10
64127.5761
 20
895.2326
 10
64128.2551
 20
895.2326
  0
LWPOLYLINE
  5
3FA
330
1F
100
AcDbEntity
  8
0
  6
Continuous
 62
     7
100
AcDbPolyline
 90
        2
 70
     0
 43
0.0
 10
64134.358
 20
895.2326
 10
64135.037
 20
895.2326
  0
LWPOLYLINE
  5
3FE
330
1F
100
AcDbEntity
  8
0
  6
Continuous
 62
     7
100
AcDbPolyline
 90
        2
 70
     0
 43
0.0
 10
64124.1852
 20
891.8412
 10
64124.8642
 20
891.8412
  0
LWPOLYLINE
  5
402
330
1F
100
AcDbEntity
  8
0
  6
Continuous
 62
     7
100
AcDbPolyline
 90
        2
 70
     0
 43
0.0
 10
64130.9671
 20
891.8412
 10
64131.6461
 20
891.8412
  0
LWPOLYLINE
  5
406
330
1F
100
AcDbEntity
  8
0
  6
Continuous
 62
     7
100
AcDbPolyline
 90
        2
 70
     0
 43
0.0
 10
64137.7489
 20
891.8412
 10
64138.4279
 20
891.8412
  0
LWPOLYLINE
  5
40A
330
1F
100
AcDbEntity
  8
0
  6
Continuous
 62
     7
100
AcDbPolyline
 90
        2
 70
     0
 43
0.0
 10
64127.5761
 20
888.4497
 10
64128.2551
 20
888.4497
  0
LWPOLYLINE
  5
40E
330
1F
100
AcDbEntity
  8
0
  6
Continuous
 62
     7
100
AcDbPolyline
 90
        2
 70
     0
 43
0.0
 10
64134.358
 20
888.4497
 10
64135.037
 20
888.4497
  0
LWPOLYLINE
  5
412
330
1F
100
AcDbEntity
  8
0
  6
Continuous
 62
     7
100
AcDbPolyline
 90
        2
 70
     0
 43
0.0
 10
64124.1852
 20
885.0583
 10
64124.8642
 20
885.0583
  0
LWPOLYLINE
  5
416
330
1F
100
AcDbEntity
  8
0
  6
Continuous
 62
     7
100
AcDbPolyline
 90
        2
 70
     0
 43
0.0
 10
64130.9671
 20
885.0583
 10
64131.6461
 20
885.0583
  0
LWPOLYLINE
  5
41A
330
1F
100
AcDbEntity
  8
0
  6
Continuous
 62
     7
100
AcDbPolyline
 90
        2
 70
     0
 43
0.0
 10
64137.7489
 20
885.0583
 10
64138.4279
 20
885.0583
  0
LWPOLYLINE
  5
41E
330
1F
100
AcDbEntity
  8
0
  6
Continuous
 62
     7
100
AcDbPolyline
 90
        2
 70
     0
 43
0.0
 10
64127.5802
 20
881.6669
 10
64128.2592
 20
881.6669
  0
LWPOLYLINE
  5
422
330
1F
100
AcDbEntity
  8
0
  6
Continuous
 62
     7
100
AcDbPolyline
 90
        2
 70
     0
 43
0.0
 10
64134.362
 20
881.6669
 10
64135.041
 20
881.6669
  0
LWPOLYLINE
  5
426
330
1F
100
AcDbEntity
  8
0
  6
Continuous
 62
     7
100
AcDbPolyline
 90
        2
 70
     0
 43
0.0
 10
64124.1892
 20
878.2754
 10
64124.8682
 20
878.2754
  0
LWPOLYLINE
  5
42A
330
1F
100
AcDbEntity
  8
0
  6
Continuous
 62
     7
100
AcDbPolyline
 90
        2
 70
     0
 43
0.0
 10
64130.9711
 20
878.2754
 10
64131.6501
 20
878.2754
  0
LWPOLYLINE
  5
42E
330
1F
100
AcDbEntity
  8
0
  6
Continuous
 62
     7
100
AcDbPolyline
 90
        2
 70
     0
 43
0.0
 10
64137.753
 20
878.2754
 10
64138.432
 20
878.2754
  0
LWPOLYLINE
  5
432
330
1F
100
AcDbEntity
  8
0
  6
Continuous
 62
     7
100
AcDbPolyline
 90
        2
 70
     0
 43
0.0
 10
64127.5802
 20
874.884
 10
64128.2592
 20
874.884
  0
LWPOLYLINE
  5
436
330
1F
100
AcDbEntity
  8
0
  6
Continuous
 62
     7
100
AcDbPolyline
 90
        2
 70
     0
 43
0.0
 10
64134.362
 20
874.884
 10
64135.041
 20
874.884
  0
LWPOLYLINE
  5
43A
330
1F
100
AcDbEntity
  8
0
  6
Continuous
 62
     7
100
AcDbPolyline
 90
        2
 70
     0
 43
0.0
 10
64124.1892
 20
871.4926
 10
64124.8682
 20
871.4926
  0
LWPOLYLINE
  5
43E
330
1F
100
AcDbEntity
  8
0
  6
Continuous
 62
     7
100
AcDbPolyline
 90
        2
 70
     0
 43
0.0
 10
64130.9711
 20
871.4926
 10
64131.6501
 20
871.4926
  0
LWPOLYLINE
  5
442
330
1F
100
AcDbEntity
  8
0
  6
Continuous
 62
     7
100
AcDbPolyline
 90
        2
 70
     0
 43
0.0
 10
64137.753
 20
871.4926
 10
64138.432
 20
871.4926
  0
LWPOLYLINE
  5
446
330
1F
100
AcDbEntity
  8
0
  6
Continuous
 62
     7
100
AcDbPolyline
 90
        2
 70
     0
 43
0.0
 10
64127.5802
 20
868.1011
 10
64128.2592
 20
868.1011
  0
LWPOLYLINE
  5
44A
330
1F
100
AcDbEntity
  8
0
  6
Continuous
 62
     7
100
AcDbPolyline
 90
        2
 70
     0
 43
0.0
 10
64134.362
 20
868.1011
 10
64135.041
 20
868.1011
  0
LWPOLYLINE
  5
44E
330
1F
100
AcDbEntity
  8
0
  6
Continuous
 62
     7
100
AcDbPolyline
 90
        2
 70
     0
 43
0.0
 10
64124.1892
 20
864.7097
 10
64124.8682
 20
864.7097
  0
LWPOLYLINE
  5
452
330
1F
100
AcDbEntity
  8
0
  6
Continuous
 62
     7
100
AcDbPolyline
 90
        2
 70
     0
 43
0.0
 10
64130.9711
 20
864.7097
 10
64131.6501
 20
864.7097
  0
LWPOLYLINE
  5
456
330
1F
100
AcDbEntity
  8
0
  6
Continuous
 62
     7
100
AcDbPolyline
 90
        2
 70
     0
 43
0.0
 10
64137.753
 20
864.7097
 10
64138.432
 20
864.7097
  0
LWPOLYLINE
  5
45A
330
1F
100
AcDbEntity
  8
0
  6
Continuous
 62
     7
100
AcDbPolyline
 90
        2
 70
     0
 43
0.0
 10
64127.5802
 20
861.3183
 10
64128.2592
 20
861.3183
  0
LWPOLYLINE
  5
45E
330
1F
100
AcDbEntity
  8
0
  6
Continuous
 62
     7
100
AcDbPolyline
 90
        2
 70
     0
 43
0.0
 10
64134.362
 20
861.3183
 10
64135.041
 20
861.3183
  0
LWPOLYLINE
  5
462
330
1F
100
AcDbEntity
  8
0
  6
Continuous
 62
     7
100
AcDbPolyline
 90
        2
 70
     0
 43
0.0
 10
64124.1892
 20
857.9268
 10
64124.8682
 20
857.9268
  0
LWPOLYLINE
  5
466
330
1F
100
AcDbEntity
  8
0
  6
Continuous
 62
     7
100
AcDbPolyline
 90
        2
 70
     0
 43
0.0
 10
64130.9711
 20
857.9268
 10
64131.6501
 20
857.9268
  0
LWPOLYLINE
  5
46A
330
1F
100
AcDbEntity
  8
0
  6
Continuous
 62
     7
100
AcDbPolyline
 90
        2
 70
     0
 43
0.0
 10
64137.753
 20
857.9268
 10
64138.432
 20
857.9268
  0
LWPOLYLINE
  5
46E
330
1F
100
AcDbEntity
  8
0
  6
Continuous
 62
     7
100
AcDbPolyline
 90
        2
 70
     0
 43
0.0
 10
64127.5842
 20
854.5354
 10
64128.2632
 20
854.5354
  0
LWPOLYLINE
  5
472
330
1F
100
AcDbEntity
  8
0
  6
Continuous
 62
     7
100
AcDbPolyline
 90
        2
 70
     0
 43
0.0
 10
64134.3661
 20
854.5354
 10
64135.0451
 20
854.5354
  0
LWPOLYLINE
  5
476
330
1F
100
AcDbEntity
  8
0
  6
Continuous
 62
     7
100
AcDbPolyline
 90
        2
 70
     0
 43
0.0
 10
64124.1933
 20
851.1439
 10
64124.8723
 20
851.1439
  0
LWPOLYLINE
  5
47A
330
1F
100
AcDbEntity
  8
0
  6
Continuous
 62
     7
100
AcDbPolyline
 90
        2
 70
     0
 43
0.0
 10
64130.9751
 20
851.1439
 10
64131.6541
 20
851.1439
  0
LWPOLYLINE
  5
47E
330
1F
100
AcDbEntity
  8
0
  6
Continuous
 62
     7
100
AcDbPolyline
 90
        2
 70
     0
 43
0.0
 10
64137.757
 20
851.1439
 10
64138.436
 20
851.1439
  0
LWPOLYLINE
  5
482
330
1F
100
AcDbEntity
  8
0
  6
Continuous
 62
     7
100
AcDbPolyline
 90
        2
 70
     0
 43
0.0
 10
64127.5842
 20
847.7525
 10
64128.2632
 20
847.7525
  0
LWPOLYLINE
  5
486
330
1F
100
AcDbEntity
  8
0
  6
Continuous
 62
     7
100
AcDbPolyline
 90
        2
 70
     0
 43
0.0
 10
64134.3661
 20
847.7525
 10
64135.0451
 20
847.7525
  0
LWPOLYLINE
  5
48A
330
1F
100
AcDbEntity
  8
0
  6
Continuous
 62
     7
100
AcDbPolyline
 90
        2
 70
     0
 43
0.0
 10
64124.1933
 20
844.3611
 10
64124.8723
 20
844.3611
  0
LWPOLYLINE
  5
48E
330
1F
100
AcDbEntity
  8
0
  6
Continuous
 62
     7
100
AcDbPolyline
 90
        2
 70
     0
 43
0.0
 10
64130.9751
 20
844.3611
 10
64131.6541
 20
844.3611
  0
LWPOLYLINE
  5
492
330
1F
100
AcDbEntity
  8
0
  6
Continuous
 62
     7
100
AcDbPolyline
 90
        2
 70
     0
 43
0.0
 10
64137.757
 20
844.3611
 10
64138.436
 20
844.3611
  0
LWPOLYLINE
  5
496
330
1F
100
AcDbEntity
  8
0
  6
Continuous
 62
     7
100
AcDbPolyline
 90
        2
 70
     0
 43
0.0
 10
64127.5842
 20
840.9696
 10
64128.2632
 20
840.9696
  0
LWPOLYLINE
  5
49A
330
1F
100
AcDbEntity
  8
0
  6
Continuous
 62
     7
100
AcDbPolyline
 90
        2
 70
     0
 43
0.0
 10
64134.3661
 20
840.9696
 10
64135.0451
 20
840.9696
  0
LWPOLYLINE
  5
49E
330
1F
100
AcDbEntity
  8
0
  6
Continuous
 62
     7
100
AcDbPolyline
 90
        2
 70
     0
 43
0.0
 10
64124.1933
 20
837.5782
 10
64124.8723
 20
837.5782
  0
LWPOLYLINE
  5
4A2
330
1F
100
AcDbEntity
  8
0
  6
Continuous
 62
     7
100
AcDbPolyline
 90
        2
 70
     0
 43
0.0
 10
64130.9751
 20
837.5782
 10
64131.6541
 20
837.5782
  0
LWPOLYLINE
  5
4A6
330
1F
100
AcDbEntity
  8
0
  6
Continuous
 62
     7
100
AcDbPolyline
 90
        2
 70
     0
 43
0.0
 10
64137.757
 20
837.5782
 10
64138.436
 20
837.5782
  0
LWPOLYLINE
  5
4AA
330
1F
100
AcDbEntity
  8
0
  6
Continuous
 62
     7
100
AcDbPolyline
 90
        2
 70
     0
 43
0.0
 10
64127.5842
 20
834.1868
 10
64128.2632
 20
834.1868
  0
LWPOLYLINE
  5
4AE
330
1F
100
AcDbEntity
  8
0
  6
Continuous
 62
     7
100
AcDbPolyline
 90
        2
 70
     0
 43
0.0
 10
64134.3661
 20
834.1868
 10
64135.0451
 20
834.1868
  0
LWPOLYLINE
  5
4B2
330
1F
100
AcDbEntity
  8
0
  6
Continuous
 62
     7
100
AcDbPolyline
 90
        2
 70
     0
 43
0.0
 10
64124.1933
 20
830.7953
 10
64124.8723
 20
830.7953
  0
LWPOLYLINE
  5
4B6
330
1F
100
AcDbEntity
  8
0
  6
Continuous
 62
     7
100
AcDbPolyline
 90
        2
 70
     0
 43
0.0
 10
64130.9751
 20
830.7953
 10
64131.6541
 20
830.7953
  0
LWPOLYLINE
  5
4BA
330
1F
100
AcDbEntity
  8
0
  6
Continuous
 62
     7
100
AcDbPolyline
 90
        2
 70
     0
 43
0.0
 10
64137.757
 20
830.7953
 10
64138.436
 20
830.7953
  0
LWPOLYLINE
  5
4BE
330
1F
100
AcDbEntity
  8
0
  6
Continuous
 62
     7
100
AcDbPolyline
 90
        2
 70
     0
 43
0.0
 10
64127.5883
 20
827.4039
 10
64128.2673
 20
827.4039
  0
LWPOLYLINE
  5
4C2
330
1F
100
AcDbEntity
  8
0
  6
Continuous
 62
     7
100
AcDbPolyline
 90
        2
 70
     0
 43
0.0
 10
64134.3701
 20
827.4039
 10
64135.0491
 20
827.4039
  0
LWPOLYLINE
  5
4C6
330
1F
100
AcDbEntity
  8
0
  6
Continuous
 62
     7
100
AcDbPolyline
 90
        2
 70
     0
 43
0.0
 10
64124.1973
 20
824.0125
 10
64124.8763
 20
824.0125
  0
LWPOLYLINE
  5
4CA
330
1F
100
AcDbEntity
  8
0
  6
Continuous
 62
     7
100
AcDbPolyline
 90
        2
 70
     0
 43
0.0
 10
64130.9792
 20
824.0125
 10
64131.6582
 20
824.0125
  0
LWPOLYLINE
  5
4CE
330
1F
100
AcDbEntity
  8
0
  6
Continuous
 62
     7
100
AcDbPolyline
 90
        2
 70
     0
 43
0.0
 10
64137.761
 20
824.0125
 10
64138.44
 20
824.0125
  0
LWPOLYLINE
  5
4D2
330
1F
100
AcDbEntity
  8
0
  6
Continuous
 62
     7
100
AcDbPolyline
 90
        2
 70
     0
 43
0.0
 10
64127.5883
 20
820.621
 10
64128.2673
 20
820.621
  0
LWPOLYLINE
  5
4D6
330
1F
100
AcDbEntity
  8
0
  6
Continuous
 62
     7
100
AcDbPolyline
 90
        2
 70
     0
 43
0.0
 10
64134.3701
 20
820.621
 10
64135.0491
 20
820.621
  0
LWPOLYLINE
  5
4DA
330
1F
100
AcDbEntity
  8
0
  6
Continuous
 62
     7
100
AcDbPolyline
 90
        2
 70
     0
 43
0.0
 10
64124.1973
 20
817.2296
 10
64124.8763
 20
817.2296
  0
LWPOLYLINE
  5
4DE
330
1F
100
AcDbEntity
  8
0
  6
Continuous
 62
     7
100
AcDbPolyline
 90
        2
 70
     0
 43
0.0
 10
64130.9792
 20
817.2296
 10
64131.6582
 20
817.2296
  0
LWPOLYLINE
  5
4E2
330
1F
100
AcDbEntity
  8
0
  6
Continuous
 62
     7
100
AcDbPolyline
 90
        2
 70
     0
 43
0.0
 10
64137.761
 20
817.2296
 10
64138.44
 20
817.2296
  0
LWPOLYLINE
  5
4E6
330
1F
100
AcDbEntity
  8
0
  6
Continuous
 62
     7
100
AcDbPolyline
 90
        2
 70
     0
 43
0.0
 10
64127.5883
 20
813.8382
 10
64128.2673
 20
813.8382
  0
LWPOLYLINE
  5
4EA
330
1F
100
AcDbEntity
  8
0
  6
Continuous
 62
     7
100
AcDbPolyline
 90
        2
 70
     0
 43
0.0
 10
64134.3701
 20
813.8382
 10
64135.0491
 20
813.8382
  0
LWPOLYLINE
  5
4EE
330
1F
100
AcDbEntity
  8
0
  6
Continuous
 62
     7
100
AcDbPolyline
 90
        2
 70
     0
 43
0.0
 10
64124.1973
 20
810.4467
 10
64124.8763
 20
810.4467
  0
LWPOLYLINE
  5
4F2
330
1F
100
AcDbEntity
  8
0
  6
Continuous
 62
     7
100
AcDbPolyline
 90
        2
 70
     0
 43
0.0
 10
64130.9792
 20
810.4467
 10
64131.6582
 20
810.4467
  0
LWPOLYLINE
  5
4F6
330
1F
100
AcDbEntity
  8
0
  6
Continuous
 62
     7
100
AcDbPolyline
 90
        2
 70
     0
 43
0.0
 10
64137.761
 20
810.4467
 10
64138.44
 20
810.4467
  0
LWPOLYLINE
  5
4FA
330
1F
100
AcDbEntity
  8
0
  6
Continuous
 62
     7
100
AcDbPolyline
 90
        2
 70
     0
 43
0.0
 10
64127.5883
 20
807.0553
 10
64128.2673
 20
807.0553
  0
LWPOLYLINE
  5
4FE
330
1F
100
AcDbEntity
  8
0
  6
Continuous
 62
     7
100
AcDbPolyline
 90
        2
 70
     0
 43
0.0
 10
64134.3701
 20
807.0553
 10
64135.0491
 20
807.0553
  0
LWPOLYLINE
  5
502
330
1F
100
AcDbEntity
  8
0
  6
Continuous
 62
     7
100
AcDbPolyline
 90
        2
 70
     0
 43
0.0
 10
64124.1973
 20
803.6639
 10
64124.8763
 20
803.6639
  0
LWPOLYLINE
  5
506
330
1F
100
AcDbEntity
  8
0
  6
Continuous
 62
     7
100
AcDbPolyline
 90
        2
 70
     0
 43
0.0
 10
64130.9792
 20
803.6639
 10
64131.6582
 20
803.6639
  0
LWPOLYLINE
  5
50A
330
1F
100
AcDbEntity
  8
0
  6
Continuous
 62
     7
100
AcDbPolyline
 90
        2
 70
     0
 43
0.0
 10
64137.761
 20
803.6639
 10
64138.44
 20
803.6639
  0
LWPOLYLINE
  5
50E
330
1F
100
AcDbEntity
  8
0
  6
Continuous
 62
     7
100
AcDbPolyline
 90
        2
 70
     0
 43
0.0
 10
64127.5923
 20
800.2724
 10
64128.2713
 20
800.2724
  0
LWPOLYLINE
  5
512
330
1F
100
AcDbEntity
  8
0
  6
Continuous
 62
     7
100
AcDbPolyline
 90
        2
 70
     0
 43
0.0
 10
64134.3742
 20
800.2724
 10
64135.0532
 20
800.2724
  0
LWPOLYLINE
  5
516
330
1F
100
AcDbEntity
  8
0
  6
Continuous
 62
     7
100
AcDbPolyline
 90
        2
 70
     0
 43
0.0
 10
64124.2014
 20
796.881
 10
64124.8804
 20
796.881
  0
LWPOLYLINE
  5
51A
330
1F
100
AcDbEntity
  8
0
  6
Continuous
 62
     7
100
AcDbPolyline
 90
        2
 70
     0
 43
0.0
 10
64130.9832
 20
796.881
 10
64131.6622
 20
796.881
  0
LWPOLYLINE
  5
51E
330
1F
100
AcDbEntity
  8
0
  6
Continuous
 62
     7
100
AcDbPolyline
 90
        2
 70
     0
 43
0.0
 10
64137.7651
 20
796.881
 10
64138.4441
 20
796.881
  0
LWPOLYLINE
  5
522
330
1F
100
AcDbEntity
  8
0
  6
Continuous
 62
     7
100
AcDbPolyline
 90
        2
 70
     0
 43
0.0
 10
64127.5923
 20
793.4896
 10
64128.2713
 20
793.4896
  0
LWPOLYLINE
  5
526
330
1F
100
AcDbEntity
  8
0
  6
Continuous
 62
     7
100
AcDbPolyline
 90
        2
 70
     0
 43
0.0
 10
64134.3742
 20
793.4896
 10
64135.0532
 20
793.4896
  0
LWPOLYLINE
  5
52A
330
1F
100
AcDbEntity
  8
0
  6
Continuous
 62
     7
100
AcDbPolyline
 90
        2
 70
     0
 43
0.0
 10
64124.2014
 20
790.0981
 10
64124.8804
 20
790.0981
  0
LWPOLYLINE
  5
52E
330
1F
100
AcDbEntity
  8
0
  6
Continuous
 62
     7
100
AcDbPolyline
 90
        2
 70
     0
 43
0.0
 10
64130.9832
 20
790.0981
 10
64131.6622
 20
790.0981
  0
LWPOLYLINE
  5
532
330
1F
100
AcDbEntity
  8
0
  6
Continuous
 62
     7
100
AcDbPolyline
 90
        2
 70
     0
 43
0.0
 10
64137.7651
 20
790.0981
 10
64138.4441
 20
790.0981
  0
LWPOLYLINE
  5
536
330
1F
100
AcDbEntity
  8
0
  6
Continuous
 62
     7
100
AcDbPolyline
 90
        2
 70
     0
 43
0.0
 10
64127.5923
 20
786.7067
 10
64128.2713
 20
786.7067
  0
LWPOLYLINE
  5
53A
330
1F
100
AcDbEntity
  8
0
  6
Continuous
 62
     7
100
AcDbPolyline
 90
        2
 70
     0
 43
0.0
 10
64134.3742
 20
786.7067
 10
64135.0532
 20
786.7067
  0
LWPOLYLINE
  5
53E
330
1F
100
AcDbEntity
  8
0
  6
Continuous
 62
     7
100
AcDbPolyline
 90
        2
 70
     0
 43
0.0
 10
64124.2014
 20
783.3153
 10
64124.8804
 20
783.3153
  0
LWPOLYLINE
  5
542
330
1F
100
AcDbEntity
  8
0
  6
Continuous
 62
     7
100
AcDbPolyline
 90
        2
 70
     0
 43
0.0
 10
64130.9832
 20
783.3153
 10
64131.6622
 20
783.3153
  0
LWPOLYLINE
  5
546
330
1F
100
AcDbEntity
  8
0
  6
Continuous
 62
     7
100
AcDbPolyline
 90
        2
 70
     0
 43
0.0
 10
64137.7651
 20
783.3153
 10
64138.4441
 20
783.3153
  0
LWPOLYLINE
  5
54A
330
1F
100
AcDbEntity
  8
0
  6
Continuous
 62
     7
100
AcDbPolyline
 90
        2
 70
     0
 43
0.0
 10
64127.5923
 20
779.9238
 10
64128.2713
 20
779.9238
  0
LWPOLYLINE
  5
54E
330
1F
100
AcDbEntity
  8
0
  6
Continuous
 62
     7
100
AcDbPolyline
 90
        2
 70
     0
 43
0.0
 10
64134.3742
 20
779.9238
 10
64135.0532
 20
779.9238
  0
LWPOLYLINE
  5
552
330
1F
100
AcDbEntity
  8
0
  6
Continuous
 62
     7
100
AcDbPolyline
 90
        2
 70
     0
 43
0.0
 10
64124.2014
 20
776.5324
 10
64124.8804
 20
776.5324
  0
LWPOLYLINE
  5
556
330
1F
100
AcDbEntity
  8
0
  6
Continuous
 62
     7
100
AcDbPolyline
 90
        2
 70
     0
 43
0.0
 10
64130.9832
 20
776.5324
 10
64131.6622
 20
776.5324
  0
LWPOLYLINE
  5
55A
330
1F
100
AcDbEntity
  8
0
  6
Continuous
 62
     7
100
AcDbPolyline
 90
        2
 70
     0
 43
0.0
 10
64137.7651
 20
776.5324
 10
64138.4441
 20
776.5324
  0
LWPOLYLINE
  5
55E
330
1F
100
AcDbEntity
  8
0
  6
Continuous
 62
     7
100
AcDbPolyline
 90
        2
 70
     0
 43
0.0
 10
64127.5963
 20
773.141
 10
64128.2753
 20
773.141
  0
LWPOLYLINE
  5
562
330
1F
100
AcDbEntity
  8
0
  6
Continuous
 62
     7
100
AcDbPolyline
 90
        2
 70
     0
 43
0.0
 10
64134.3782
 20
773.141
 10
64135.0572
 20
773.141
  0
LWPOLYLINE
  5
566
330
1F
100
AcDbEntity
  8
0
  6
Continuous
 62
     7
100
AcDbPolyline
 90
        2
 70
     0
 43
0.0
 10
64124.2054
 20
769.7495
 10
64124.8844
 20
769.7495
  0
LWPOLYLINE
  5
56A
330
1F
100
AcDbEntity
  8
0
  6
Continuous
 62
     7
100
AcDbPolyline
 90
        2
 70
     0
 43
0.0
 10
64130.9873
 20
769.7495
 10
64131.6663
 20
769.7495
  0
LWPOLYLINE
  5
56E
330
1F
100
AcDbEntity
  8
0
  6
Continuous
 62
     7
100
AcDbPolyline
 90
        2
 70
     0
 43
0.0
 10
64137.7691
 20
769.7495
 10
64138.4481
 20
769.7495
  0
LWPOLYLINE
  5
572
330
1F
100
AcDbEntity
  8
0
  6
Continuous
 62
     7
100
AcDbPolyline
 90
        2
 70
     0
 43
0.0
 10
64127.5963
 20
766.3581
 10
64128.2753
 20
766.3581
  0
LWPOLYLINE
  5
576
330
1F
100
AcDbEntity
  8
0
  6
Continuous
 62
     7
100
AcDbPolyline
 90
        2
 70
     0
 43
0.0
 10
64134.3782
 20
766.3581
 10
64135.0572
 20
766.3581
  0
LWPOLYLINE
  5
57A
330
1F
100
AcDbEntity
  8
0
  6
Continuous
 62
     7
100
AcDbPolyline
 90
        2
 70
     0
 43
0.0
 10
64124.2054
 20
762.9667
 10
64124.8844
 20
762.9667
  0
LWPOLYLINE
  5
57E
330
1F
100
AcDbEntity
  8
0
  6
Continuous
 62
     7
100
AcDbPolyline
 90
        2
 70
     0
 43
0.0
 10
64130.9873
 20
762.9667
 10
64131.6663
 20
762.9667
  0
LWPOLYLINE
  5
582
330
1F
100
AcDbEntity
  8
0
  6
Continuous
 62
     7
100
AcDbPolyline
 90
        2
 70
     0
 43
0.0
 10
64137.7691
 20
762.9667
 10
64138.4481
 20
762.9667
  0
LWPOLYLINE
  5
586
330
1F
100
AcDbEntity
  8
0
  6
Continuous
 62
     7
100
AcDbPolyline
 90
        2
 70
     0
 43
0.0
 10
64127.5963
 20
759.5752
 10
64128.2753
 20
759.5752
  0
LWPOLYLINE
  5
58A
330
1F
100
AcDbEntity
  8
0
  6
Continuous
 62
     7
100
AcDbPolyline
 90
        2
 70
     0
 43
0.0
 10
64134.3782
 20
759.5752
 10
64135.0572
 20
759.5752
  0
LWPOLYLINE
  5
58E
330
1F
100
AcDbEntity
  8
0
  6
Continuous
 62
     7
100
AcDbPolyline
 90
        2
 70
     0
 43
0.0
 10
64124.2054
 20
756.1838
 10
64124.8844
 20
756.1838
  0
LWPOLYLINE
  5
592
330
1F
100
AcDbEntity
  8
0
  6
Continuous
 62
     7
100
AcDbPolyline
 90
        2
 70
     0
 43
0.0
 10
64130.9873
 20
756.1838
 10
64131.6663
 20
756.1838
  0
LWPOLYLINE
  5
596
330
1F
100
AcDbEntity
  8
0
  6
Continuous
 62
     7
100
AcDbPolyline
 90
        2
 70
     0
 43
0.0
 10
64137.7691
 20
756.1838
 10
64138.4481
 20
756.1838
  0
LWPOLYLINE
  5
59A
330
1F
100
AcDbEntity
  8
0
  6
Continuous
 62
     7
100
AcDbPolyline
 90
        2
 70
     0
 43
0.0
 10
64127.5963
 20
752.7923
 10
64128.2753
 20
752.7923
  0
LWPOLYLINE
  5
59E
330
1F
100
AcDbEntity
  8
0
  6
Continuous
 62
     7
100
AcDbPolyline
 90
        2
 70
     0
 43
0.0
 10
64134.3782
 20
752.7923
 10
64135.0572
 20
752.7923
  0
LWPOLYLINE
  5
5A2
330
1F
100
AcDbEntity
  8
0
  6
Continuous
 62
     7
100
AcDbPolyline
 90
        2
 70
     0
 43
0.0
 10
64124.2054
 20
749.4009
 10
64124.8844
 20
749.4009
  0
LWPOLYLINE
  5
5A6
330
1F
100
AcDbEntity
  8
0
  6
Continuous
 62
     7
100
AcDbPolyline
 90
        2
 70
     0
 43
0.0
 10
64130.9873
 20
749.4009
 10
64131.6663
 20
749.4009
  0
LWPOLYLINE
  5
5AA
330
1F
100
AcDbEntity
  8
0
  6
Continuous
 62
     7
100
AcDbPolyline
 90
        2
 70
     0
 43
0.0
 10
64137.7691
 20
749.4009
 10
64138.4481
 20
749.4009
  0
LWPOLYLINE
  5
5AE
330
1F
100
AcDbEntity
  8
0
  6
Continuous
 62
     7
100
AcDbPolyline
 90
        2
 70
     0
 43
0.0
 10
64127.5963
 20
746.0095
 10
64128.2753
 20
746.0095
  0
LWPOLYLINE
  5
5B2
330
1F
100
AcDbEntity
  8
0
  6
Continuous
 62
     7
100
AcDbPolyline
 90
        2
 70
     0
 43
0.0
 10
64134.3782
 20
746.0095
 10
64135.0572
 20
746.0095
  0
LWPOLYLINE
  5
5B6
330
1F
100
AcDbEntity
  8
0
  6
Continuous
 62
     7
100
AcDbPolyline
 90
        2
 70
     0
 43
0.0
 10
64124.2054
 20
742.618
 10
64124.8844
 20
742.618
  0
LWPOLYLINE
  5
5BA
330
1F
100
AcDbEntity
  8
0
  6
Continuous
 62
     7
100
AcDbPolyline
 90
        2
 70
     0
 43
0.0
 10
64130.9873
 20
742.618
 10
64131.6663
 20
742.618
  0
LWPOLYLINE
  5
5BE
330
1F
100
AcDbEntity
  8
0
  6
Continuous
 62
     7
100
AcDbPolyline
 90
        2
 70
     0
 43
0.0
 10
64137.7691
 20
742.618
 10
64138.4481
 20
742.618
  0
LWPOLYLINE
  5
5C2
330
1F
100
AcDbEntity
  8
0
  6
Continuous
 62
     7
100
AcDbPolyline
 90
        2
 70
     0
 43
0.0
 10
64127.6004
 20
739.2266
 10
64128.2794
 20
739.2266
  0
LWPOLYLINE
  5
5C6
330
1F
100
AcDbEntity
  8
0
  6
Continuous
 62
     7
100
AcDbPolyline
 90
        2
 70
     0
 43
0.0
 10
64134.3822
 20
739.2266
 10
64135.0612
 20
739.2266
  0
LWPOLYLINE
  5
5CA
330
1F
100
AcDbEntity
  8
0
  6
Continuous
 62
     7
100
AcDbPolyline
 90
        2
 70
     0
 43
0.0
 10
64124.2095
 20
735.8352
 10
64124.8884
 20
735.8352
  0
LWPOLYLINE
  5
5CE
330
1F
100
AcDbEntity
  8
0
  6
Continuous
 62
     7
100
AcDbPolyline
 90
        2
 70
     0
 43
0.0
 10
64130.9913
 20
735.8352
 10
64131.6703
 20
735.8352
  0
LWPOLYLINE
  5
5D2
330
1F
100
AcDbEntity
  8
0
  6
Continuous
 62
     7
100
AcDbPolyline
 90
        2
 70
     0
 43
0.0
 10
64137.7732
 20
735.8352
 10
64138.4522
 20
735.8352
  0
LWPOLYLINE
  5
5D6
330
1F
100
AcDbEntity
  8
0
  6
Continuous
 62
     7
100
AcDbPolyline
 90
        2
 70
     0
 43
0.0
 10
64127.6004
 20
732.4437
 10
64128.2794
 20
732.4437
  0
LWPOLYLINE
  5
5DA
330
1F
100
AcDbEntity
  8
0
  6
Continuous
 62
     7
100
AcDbPolyline
 90
        2
 70
     0
 43
0.0
 10
64134.3822
 20
732.4437
 10
64135.0612
 20
732.4437
  0
LWPOLYLINE
  5
5DE
330
1F
100
AcDbEntity
  8
0
  6
Continuous
 62
     7
100
AcDbPolyline
 90
        2
 70
     0
 43
0.0
 10
64124.2095
 20
729.0523
 10
64124.8884
 20
729.0523
  0
LWPOLYLINE
  5
5E2
330
1F
100
AcDbEntity
  8
0
  6
Continuous
 62
     7
100
AcDbPolyline
 90
        2
 70
     0
 43
0.0
 10
64130.9913
 20
729.0523
 10
64131.6703
 20
729.0523
  0
LWPOLYLINE
  5
5E6
330
1F
100
AcDbEntity
  8
0
  6
Continuous
 62
     7
100
AcDbPolyline
 90
        2
 70
     0
 43
0.0
 10
64137.7732
 20
729.0523
 10
64138.4522
 20
729.0523
  0
LWPOLYLINE
  5
5EA
330
1F
100
AcDbEntity
  8
0
  6
Continuous
 62
     7
100
AcDbPolyline
 90
        2
 70
     0
 43
0.0
 10
64127.6004
 20
725.6609
 10
64128.2794
 20
725.6609
  0
LWPOLYLINE
  5
5EE
330
1F
100
AcDbEntity
  8
0
  6
Continuous
 62
     7
100
AcDbPolyline
 90
        2
 70
     0
 43
0.0
 10
64134.3822
 20
725.6609
 10
64135.0612
 20
725.6609
  0
LWPOLYLINE
  5
5F2
330
1F
100
AcDbEntity
  8
0
  6
Continuous
 62
     7
100
AcDbPolyline
 90
        2
 70
     0
 43
0.0
 10
64124.2095
 20
722.2694
 10
64124.8884
 20
722.2694
  0
LWPOLYLINE
  5
5F6
330
1F
100
AcDbEntity
  8
0
  6
Continuous
 62
     7
100
AcDbPolyline
 90
        2
 70
     0
 43
0.0
 10
64130.9913
 20
722.2694
 10
64131.6703
 20
722.2694
  0
LWPOLYLINE
  5
5FA
330
1F
100
AcDbEntity
  8
0
  6
Continuous
 62
     7
100
AcDbPolyline
 90
        2
 70
     0
 43
0.0
 10
64137.7732
 20
722.2694
 10
64138.4522
 20
722.2694
  0
LWPOLYLINE
  5
5FE
330
1F
100
AcDbEntity
  8
0
  6
Continuous
 62
     7
100
AcDbPolyline
 90
        2
 70
     0
 43
0.0
 10
64127.6004
 20
718.878
 10
64128.2794
 20
718.878
  0
LWPOLYLINE
  5
602
330
1F
100
AcDbEntity
  8
0
  6
Continuous
 62
     7
100
AcDbPolyline
 90
        2
 70
     0
 43
0.0
 10
64134.3822
 20
718.878
 10
64135.0612
 20
718.878
  0
LWPOLYLINE
  5
606
330
1F
100
AcDbEntity
  8
0
  6
Continuous
 62
     7
100
AcDbPolyline
 90
        2
 70
     0
 43
0.0
 10
64124.2095
 20
715.4866
 10
64124.8884
 20
715.4866
  0
LWPOLYLINE
  5
60A
330
1F
100
AcDbEntity
  8
0
  6
Continuous
 62
     7
100
AcDbPolyline
 90
        2
 70
     0
 43
0.0
 10
64130.9913
 20
715.4866
 10
64131.6703
 20
715.4866
  0
LWPOLYLINE
  5
60E
330
1F
100
AcDbEntity
  8
0
  6
Continuous
 62
     7
100
AcDbPolyline
 90
        2
 70
     0
 43
0.0
 10
64137.7732
 20
715.4866
 10
64138.4522
 20
715.4866
  0
LWPOLYLINE
  5
612
330
1F
100
AcDbEntity
  8
0
  6
Continuous
 62
     7
100
AcDbPolyline
 90
        2
 70
     0
 43
0.0
 10
64127.6044
 20
712.0951
 10
64128.2834
 20
712.0951
  0
LWPOLYLINE
  5
616
330
1F
100
AcDbEntity
  8
0
  6
Continuous
 62
     7
100
AcDbPolyline
 90
        2
 70
     0
 43
0.0
 10
64134.3863
 20
712.0951
 10
64135.0653
 20
712.0951
  0
LWPOLYLINE
  5
61A
330
1F
100
AcDbEntity
  8
0
  6
Continuous
 62
     7
100
AcDbPolyline
 90
        2
 70
     0
 43
0.0
 10
64124.2135
 20
708.7037
 10
64124.8925
 20
708.7037
  0
LWPOLYLINE
  5
61E
330
1F
100
AcDbEntity
  8
0
  6
Continuous
 62
     7
100
AcDbPolyline
 90
        2
 70
     0
 43
0.0
 10
64130.9954
 20
708.7037
 10
64131.6743
 20
708.7037
  0
LWPOLYLINE
  5
622
330
1F
100
AcDbEntity
  8
0
  6
Continuous
 62
     7
100
AcDbPolyline
 90
        2
 70
     0
 43
0.0
 10
64137.7772
 20
708.7037
 10
64138.4562
 20
708.7037
  0
LWPOLYLINE
  5
626
330
1F
100
AcDbEntity
  8
0
  6
Continuous
 62
     7
100
AcDbPolyline
 90
        2
 70
     0
 43
0.0
 10
64127.6044
 20
705.3123
 10
64128.2834
 20
705.3123
  0
LWPOLYLINE
  5
62A
330
1F
100
AcDbEntity
  8
0
  6
Continuous
 62
     7
100
AcDbPolyline
 90
        2
 70
     0
 43
0.0
 10
64134.3863
 20
705.3123
 10
64135.0653
 20
705.3123
  0
LWPOLYLINE
  5
62E
330
1F
100
AcDbEntity
  8
0
  6
Continuous
 62
     7
100
AcDbPolyline
 90
        2
 70
     0
 43
0.0
 10
64124.2135
 20
701.9208
 10
64124.8925
 20
701.9208
  0
LWPOLYLINE
  5
632
330
1F
100
AcDbEntity
  8
0
  6
Continuous
 62
     7
100
AcDbPolyline
 90
        2
 70
     0
 43
0.0
 10
64130.9954
 20
701.9208
 10
64131.6743
 20
701.9208
  0
LWPOLYLINE
  5
636
330
1F
100
AcDbEntity
  8
0
  6
Continuous
 62
     7
100
AcDbPolyline
 90
        2
 70
     0
 43
0.0
 10
64137.7772
 20
701.9208
 10
64138.4562
 20
701.9208
  0
LWPOLYLINE
  5
63A
330
1F
100
AcDbEntity
  8
0
  6
Continuous
 62
     7
100
AcDbPolyline
 90
        2
 70
     0
 43
0.0
 10
64127.6044
 20
698.5294
 10
64128.2834
 20
698.5294
  0
LWPOLYLINE
  5
63E
330
1F
100
AcDbEntity
  8
0
  6
Continuous
 62
     7
100
AcDbPolyline
 90
        2
 70
     0
 43
0.0
 10
64134.3863
 20
698.5294
 10
64135.0653
 20
698.5294
  0
LWPOLYLINE
  5
642
330
1F
100
AcDbEntity
  8
0
  6
Continuous
 62
     7
100
AcDbPolyline
 90
        2
 70
     0
 43
0.0
 10
64124.2135
 20
695.138
 10
64124.8925
 20
695.138
  0
LWPOLYLINE
  5
646
330
1F
100
AcDbEntity
  8
0
  6
Continuous
 62
     7
100
AcDbPolyline
 90
        2
 70
     0
 43
0.0
 10
64130.9954
 20
695.138
 10
64131.6743
 20
695.138
  0
LWPOLYLINE
  5
64A
330
1F
100
AcDbEntity
  8
0
  6
Continuous
 62
     7
100
AcDbPolyline
 90
        2
 70
     0
 43
0.0
 10
64137.7772
 20
695.138
 10
64138.4562
 20
695.138
  0
LWPOLYLINE
  5
64E
330
1F
100
AcDbEntity
  8
0
  6
Continuous
 62
     7
100
AcDbPolyline
 90
        2
 70
     0
 43
0.0
 10
64127.6044
 20
691.7465
 10
64128.2834
 20
691.7465
  0
LWPOLYLINE
  5
652
330
1F
100
AcDbEntity
  8
0
  6
Continuous
 62
     7
100
AcDbPolyline
 90
        2
 70
     0
 43
0.0
 10
64134.3863
 20
691.7465
 10
64135.0653
 20
691.7465
  0
LWPOLYLINE
  5
656
330
1F
100
AcDbEntity
  8
0
  6
Continuous
 62
     7
100
AcDbPolyline
 90
        2
 70
     0
 43
0.0
 10
64124.2135
 20
688.3551
 10
64124.8925
 20
688.3551
  0
LWPOLYLINE
  5
65A
330
1F
100
AcDbEntity
  8
0
  6
Continuous
 62
     7
100
AcDbPolyline
 90
        2
 70
     0
 43
0.0
 10
64130.9954
 20
688.3551
 10
64131.6743
 20
688.3551
  0
LWPOLYLINE
  5
65E
330
1F
100
AcDbEntity
  8
0
  6
Continuous
 62
     7
100
AcDbPolyline
 90
        2
 70
     0
 43
0.0
 10
64137.7772
 20
688.3551
 10
64138.4562
 20
688.3551
  0
LWPOLYLINE
  5
662
330
1F
100
AcDbEntity
  8
0
  6
Continuous
 62
     7
100
AcDbPolyline
 90
        2
 70
     0
 43
0.0
 10
64127.6085
 20
684.9637
 10
64128.2875
 20
684.9637
  0
LWPOLYLINE
  5
666
330
1F
100
AcDbEntity
  8
0
  6
Continuous
 62
     7
100
AcDbPolyline
 90
        2
 70
     0
 43
0.0
 10
64134.3903
 20
684.9637
 10
64135.0693
 20
684.9637
  0
LWPOLYLINE
  5
66A
330
1F
100
AcDbEntity
  8
0
  6
Continuous
 62
     7
100
AcDbPolyline
 90
        2
 70
     0
 43
0.0
 10
64124.2175
 20
681.5722
 10
64124.8965
 20
681.5722
  0
LWPOLYLINE
  5
66E
330
1F
100
AcDbEntity
  8
0
  6
Continuous
 62
     7
100
AcDbPolyline
 90
        2
 70
     0
 43
0.0
 10
64130.9994
 20
681.5722
 10
64131.6784
 20
681.5722
  0
LWPOLYLINE
  5
672
330
1F
100
AcDbEntity
  8
0
  6
Continuous
 62
     7
100
AcDbPolyline
 90
        2
 70
     0
 43
0.0
 10
64137.7813
 20
681.5722
 10
64138.4602
 20
681.5722
  0
LWPOLYLINE
  5
676
330
1F
100
AcDbEntity
  8
0
  6
Continuous
 62
     7
100
AcDbPolyline
 90
        2
 70
     0
 43
0.0
 10
64127.6085
 20
678.1808
 10
64128.2875
 20
678.1808
  0
LWPOLYLINE
  5
67A
330
1F
100
AcDbEntity
  8
0
  6
Continuous
 62
     7
100
AcDbPolyline
 90
        2
 70
     0
 43
0.0
 10
64134.3903
 20
678.1808
 10
64135.0693
 20
678.1808
  0
LWPOLYLINE
  5
67E
330
1F
100
AcDbEntity
  8
0
  6
Continuous
 62
     7
100
AcDbPolyline
 90
        2
 70
     0
 43
0.0
 10
64124.2175
 20
674.7894
 10
64124.8965
 20
674.7894
  0
LWPOLYLINE
  5
682
330
1F
100
AcDbEntity
  8
0
  6
Continuous
 62
     7
100
AcDbPolyline
 90
        2
 70
     0
 43
0.0
 10
64130.9994
 20
674.7894
 10
64131.6784
 20
674.7894
  0
LWPOLYLINE
  5
686
330
1F
100
AcDbEntity
  8
0
  6
Continuous
 62
     7
100
AcDbPolyline
 90
        2
 70
     0
 43
0.0
 10
64137.7813
 20
674.7894
 10
64138.4602
 20
674.7894
  0
LWPOLYLINE
  5
68A
330
1F
100
AcDbEntity
  8
0
  6
Continuous
 62
     7
100
AcDbPolyline
 90
        2
 70
     0
 43
0.0
 10
64127.6085
 20
671.3979
 10
64128.2875
 20
671.3979
  0
LWPOLYLINE
  5
68E
330
1F
100
AcDbEntity
  8
0
  6
Continuous
 62
     7
100
AcDbPolyline
 90
        2
 70
     0
 43
0.0
 10
64134.3903
 20
671.3979
 10
64135.0693
 20
671.3979
  0
LWPOLYLINE
  5
692
330
1F
100
AcDbEntity
  8
0
  6
Continuous
 62
     7
100
AcDbPolyline
 90
        2
 70
     0
 43
0.0
 10
64124.2175
 20
668.0065
 10
64124.8965
 20
668.0065
  0
LWPOLYLINE
  5
696
330
1F
100
AcDbEntity
  8
0
  6
Continuous
 62
     7
100
AcDbPolyline
 90
        2
 70
     0
 43
0.0
 10
64130.9994
 20
668.0065
 10
64131.6784
 20
668.0065
  0
LWPOLYLINE
  5
69A
330
1F
100
AcDbEntity
  8
0
  6
Continuous
 62
     7
100
AcDbPolyline
 90
        2
 70
     0
 43
0.0
 10
64137.7813
 20
668.0065
 10
64138.4602
 20
668.0065
  0
LWPOLYLINE
  5
69E
330
1F
100
AcDbEntity
  8
0
  6
Continuous
 62
     7
100
AcDbPolyline
 90
        2
 70
     0
 43
0.0
 10
64127.6085
 20
664.6151
 10
64128.2875
 20
664.6151
  0
LWPOLYLINE
  5
6A2
330
1F
100
AcDbEntity
  8
0
  6
Continuous
 62
     7
100
AcDbPolyline
 90
        2
 70
     0
 43
0.0
 10
64134.3903
 20
664.6151
 10
64135.0693
 20
664.6151
  0
LWPOLYLINE
  5
6A6
330
1F
100
AcDbEntity
  8
0
  6
Continuous
 62
     7
100
AcDbPolyline
 90
        2
 70
     0
 43
0.0
 10
64124.2175
 20
661.2236
 10
64124.8965
 20
661.2236
  0
LWPOLYLINE
  5
6AA
330
1F
100
AcDbEntity
  8
0
  6
Continuous
 62
     7
100
AcDbPolyline
 90
        2
 70
     0
 43
0.0
 10
64130.9994
 20
661.2236
 10
64131.6784
 20
661.2236
  0
LWPOLYLINE
  5
6AE
330
1F
100
AcDbEntity
  8
0
  6
Continuous
 62
     7
100
AcDbPolyline
 90
        2
 70
     0
 43
0.0
 10
64137.7813
 20
661.2236
 10
64138.4602
 20
661.2236
  0
LWPOLYLINE
  5
6B2
330
1F
100
AcDbEntity
  8
0
  6
Continuous
 62
     7
100
AcDbPolyline
 90
        2
 70
     0
 43
0.0
 10
64127.6125
 20
657.8322
 10
64128.2915
 20
657.8322
  0
LWPOLYLINE
  5
6B6
330
1F
100
AcDbEntity
  8
0
  6
Continuous
 62
     7
100
AcDbPolyline
 90
        2
 70
     0
 43
0.0
 10
64134.3944
 20
657.8322
 10
64135.0734
 20
657.8322
  0
LWPOLYLINE
  5
6BA
330
1F
100
AcDbEntity
  8
0
  6
Continuous
 62
     7
100
AcDbPolyline
 90
        2
 70
     0
 43
0.0
 10
64124.2216
 20
654.4408
 10
64124.9006
 20
654.4408
  0
LWPOLYLINE
  5
6BE
330
1F
100
AcDbEntity
  8
0
  6
Continuous
 62
     7
100
AcDbPolyline
 90
        2
 70
     0
 43
0.0
 10
64131.0034
 20
654.4408
 10
64131.6824
 20
654.4408
  0
LWPOLYLINE
  5
6C2
330
1F
100
AcDbEntity
  8
0
  6
Continuous
 62
     7
100
AcDbPolyline
 90
        2
 70
     0
 43
0.0
 10
64137.7853
 20
654.4408
 10
64138.4643
 20
654.4408
  0
LWPOLYLINE
  5
6C6
330
1F
100
AcDbEntity
  8
0
  6
Continuous
 62
     7
100
AcDbPolyline
 90
        2
 70
     0
 43
0.0
 10
64127.6125
 20
651.0493
 10
64128.2915
 20
651.0493
  0
LWPOLYLINE
  5
6CA
330
1F
100
AcDbEntity
  8
0
  6
Continuous
 62
     7
100
AcDbPolyline
 90
        2
 70
     0
 43
0.0
 10
64134.3944
 20
651.0493
 10
64135.0734
 20
651.0493
  0
LWPOLYLINE
  5
6CE
330
1F
100
AcDbEntity
  8
0
  6
Continuous
 62
     7
100
AcDbPolyline
 90
        2
 70
     0
 43
0.0
 10
64124.2216
 20
647.6579
 10
64124.9006
 20
647.6579
  0
LWPOLYLINE
  5
6D2
330
1F
100
AcDbEntity
  8
0
  6
Continuous
 62
     7
100
AcDbPolyline
 90
        2
 70
     0
 43
0.0
 10
64131.0034
 20
647.6579
 10
64131.6824
 20
647.6579
  0
LWPOLYLINE
  5
6D6
330
1F
100
AcDbEntity
  8
0
  6
Continuous
 62
     7
100
AcDbPolyline
 90
        2
 70
     0
 43
0.0
 10
64137.7853
 20
647.6579
 10
64138.4643
 20
647.6579
  0
LWPOLYLINE
  5
6DA
330
1F
100
AcDbEntity
  8
0
  6
Continuous
 62
     7
100
AcDbPolyline
 90
        2
 70
     0
 43
0.0
 10
64127.6125
 20
644.2664
 10
64128.2915
 20
644.2664
  0
LWPOLYLINE
  5
6DE
330
1F
100
AcDbEntity
  8
0
  6
Continuous
 62
     7
100
AcDbPolyline
 90
        2
 70
     0
 43
0.0
 10
64134.3944
 20
644.2664
 10
64135.0734
 20
644.2664
  0
LWPOLYLINE
  5
6E2
330
1F
100
AcDbEntity
  8
0
  6
Continuous
 62
     7
100
AcDbPolyline
 90
        2
 70
     0
 43
0.0
 10
64124.2216
 20
640.875
 10
64124.9006
 20
640.875
  0
LWPOLYLINE
  5
6E6
330
1F
100
AcDbEntity
  8
0
  6
Continuous
 62
     7
100
AcDbPolyline
 90
        2
 70
     0
 43
0.0
 10
64131.0034
 20
640.875
 10
64131.6824
 20
640.875
  0
LWPOLYLINE
  5
6EA
330
1F
100
AcDbEntity
  8
0
  6
Continuous
 62
     7
100
AcDbPolyline
 90
        2
 70
     0
 43
0.0
 10
64137.7853
 20
640.875
 10
64138.4643
 20
640.875
  0
LWPOLYLINE
  5
6EE
330
1F
100
AcDbEntity
  8
0
  6
Continuous
 62
     7
100
AcDbPolyline
 90
        2
 70
     0
 43
0.0
 10
64127.6125
 20
637.4836
 10
64128.2915
 20
637.4836
  0
LWPOLYLINE
  5
6F2
330
1F
100
AcDbEntity
  8
0
  6
Continuous
 62
     7
100
AcDbPolyline
 90
        2
 70
     0
 43
0.0
 10
64134.3944
 20
637.4836
 10
64135.0734
 20
637.4836
  0
LWPOLYLINE
  5
6F6
330
1F
100
AcDbEntity
  8
0
  6
Continuous
 62
     7
100
AcDbPolyline
 90
        2
 70
     0
 43
0.0
 10
64124.2216
 20
634.0921
 10
64124.9006
 20
634.0921
  0
LWPOLYLINE
  5
6FA
330
1F
100
AcDbEntity
  8
0
  6
Continuous
 62
     7
100
AcDbPolyline
 90
        2
 70
     0
 43
0.0
 10
64131.0034
 20
634.0921
 10
64131.6824
 20
634.0921
  0
LWPOLYLINE
  5
6FE
330
1F
100
AcDbEntity
  8
0
  6
Continuous
 62
     7
100
AcDbPolyline
 90
        2
 70
     0
 43
0.0
 10
64137.7853
 20
634.0921
 10
64138.4643
 20
634.0921
  0
LWPOLYLINE
  5
702
330
1F
100
AcDbEntity
  8
0
  6
Continuous
 62
     7
100
AcDbPolyline
 90
        2
 70
     0
 43
0.0
 10
64127.6166
 20
630.7007
 10
64128.2955
 20
630.7007
  0
LWPOLYLINE
  5
706
330
1F
100
AcDbEntity
  8
0
  6
Continuous
 62
     7
100
AcDbPolyline
 90
        2
 70
     0
 43
0.0
 10
64134.3984
 20
630.7007
 10
64135.0774
 20
630.7007
  0
LWPOLYLINE
  5
70A
330
1F
100
AcDbEntity
  8
0
  6
Continuous
 62
     7
100
AcDbPolyline
 90
        2
 70
     0
 43
0.0
 10
64124.2256
 20
627.3093
 10
64124.9046
 20
627.3093
  0
LWPOLYLINE
  5
70E
330
1F
100
AcDbEntity
  8
0
  6
Continuous
 62
     7
100
AcDbPolyline
 90
        2
 70
     0
 43
0.0
 10
64131.0075
 20
627.3093
 10
64131.6865
 20
627.3093
  0
LWPOLYLINE
  5
712
330
1F
100
AcDbEntity
  8
0
  6
Continuous
 62
     7
100
AcDbPolyline
 90
        2
 70
     0
 43
0.0
 10
64137.7893
 20
627.3093
 10
64138.4683
 20
627.3093
  0
LWPOLYLINE
  5
716
330
1F
100
AcDbEntity
  8
0
  6
Continuous
 62
     7
100
AcDbPolyline
 90
        2
 70
     0
 43
0.0
 10
64127.6166
 20
623.9178
 10
64128.2955
 20
623.9178
  0
LWPOLYLINE
  5
71A
330
1F
100
AcDbEntity
  8
0
  6
Continuous
 62
     7
100
AcDbPolyline
 90
        2
 70
     0
 43
0.0
 10
64134.3984
 20
623.9178
 10
64135.0774
 20
623.9178
  0
LWPOLYLINE
  5
71E
330
1F
100
AcDbEntity
  8
0
  6
Continuous
 62
     7
100
AcDbPolyline
 90
        2
 70
     0
 43
0.0
 10
64124.2256
 20
620.5264
 10
64124.9046
 20
620.5264
  0
LWPOLYLINE
  5
722
330
1F
100
AcDbEntity
  8
0
  6
Continuous
 62
     7
100
AcDbPolyline
 90
        2
 70
     0
 43
0.0
 10
64131.0075
 20
620.5264
 10
64131.6865
 20
620.5264
  0
LWPOLYLINE
  5
726
330
1F
100
AcDbEntity
  8
0
  6
Continuous
 62
     7
100
AcDbPolyline
 90
        2
 70
     0
 43
0.0
 10
64137.7893
 20
620.5264
 10
64138.4683
 20
620.5264
  0
LWPOLYLINE
  5
72A
330
1F
100
AcDbEntity
  8
0
  6
Continuous
 62
     7
100
AcDbPolyline
 90
        2
 70
     0
 43
0.0
 10
64127.6166
 20
617.135
 10
64128.2955
 20
617.135
  0
LWPOLYLINE
  5
72E
330
1F
100
AcDbEntity
  8
0
  6
Continuous
 62
     7
100
AcDbPolyline
 90
        2
 70
     0
 43
0.0
 10
64134.3984
 20
617.135
 10
64135.0774
 20
617.135
  0
TEXT
  5
732
330
1F
100
AcDbEntity
  8
0
 62
     7
100
AcDbText
 10
63617.4535
 20
-674.3755
 30
0.0
 40
60.0
  1
Control Joints Through Bond Beams
 50
359.9999567548254
 41
0.7711091534393733
 72
     5
 11
65074.8498
 21
-674.3766
 31
0.0
100
AcDbText
  0
TEXT
  5
733
330
1F
100
AcDbEntity
  8
0
 62
     7
100
AcDbText
 10
64378.4443
 20
454.6243
 30
0.0
 40
50.0
  1
Control joint
 41
0.642551632833185
 72
     5
 11
64742.4498
 21
454.6243
 31
0.0
100
AcDbText
  0
LWPOLYLINE
  5
734
330
1F
100
AcDbEntity
  8
0
  6
Continuous
 62
     7
100
AcDbPolyline
 90
        3
 70
     0
 43
0.0
 10
64370.458
 20
479.6227
 10
64204.4601
 20
479.6243
 10
64135.4614
 20
615.6242
  0
LWPOLYLINE
  5
739
330
1F
100
AcDbEntity
  8
0
  6
Continuous
 62
     7
100
AcDbPolyline
 90
        4
 70
     0
 43
0.0
 10
64149.0736
 20
566.8407
 10
64135.4614
 20
615.6242
 10
64166.788
 20
575.8287
 10
64149.0736
 20
566.8407
  0
LWPOLYLINE
  5
73F
330
1F
100
AcDbEntity
  8
0
  6
Continuous
 62
     7
100
AcDbPolyline
 90
        3
 70
     0
 43
0.0
 10
63576.4552
 20
1320.6226
 10
63668.4427
 20
1320.6246
 10
63758.4579
 20
1100.6224
  0
LWPOLYLINE
  5
744
330
1F
100
AcDbEntity
  8
0
  6
Continuous
 62
     7
100
AcDbPolyline
 90
        4
 70
     0
 43
0.0
 10
63748.8429
 20
1150.3487
 10
63758.4579
 20
1100.6224
 10
63730.4575
 20
1142.826
 10
63748.8429
 20
1150.3487
  0
LWPOLYLINE
  5
74A
330
1F
100
AcDbEntity
  8
0
  6
Continuous
 62
     7
100
AcDbPolyline
 90
        2
 70
     0
 43
0.0
 10
64252.1392
 20
982.9987
 10
64297.8663
 20
1028.7245
  0
LWPOLYLINE
  5
74E
330
1F
100
AcDbEntity
  8
0
  6
Continuous
 62
     7
100
AcDbPolyline
 90
        2
 70
     0
 43
0.0
 10
64297.8663
 20
1028.7245
 10
64343.5933
 20
1074.4504
  0
LWPOLYLINE
  5
752
330
1F
100
AcDbEntity
  8
0
  6
Continuous
 62
     7
100
AcDbPolyline
 90
        2
 70
     0
 43
0.0
 10
64343.5933
 20
1074.4504
 10
64389.3203
 20
1120.1762
  0
LWPOLYLINE
  5
756
330
1F
100
AcDbEntity
  8
0
  6
Continuous
 62
     7
100
AcDbPolyline
 90
        2
 70
     0
 43
0.0
 10
64389.3203
 20
1120.1762
 10
64435.0473
 20
1165.902
  0
LWPOLYLINE
  5
75A
330
1F
100
AcDbEntity
  8
0
  6
Continuous
 62
     7
100
AcDbPolyline
 90
        2
 70
     0
 43
0.0
 10
64435.0473
 20
1165.902
 10
64448.7646
 20
1179.6239
  0
LWPOLYLINE
  5
75E
330
1F
100
AcDbEntity
  8
0
  6
Continuous
 62
     7
100
AcDbPolyline
 90
        2
 70
     0
 43
0.0
 10
64206.4162
 20
982.9987
 10
64238.4219
 20
1015.0026
  0
LWPOLYLINE
  5
762
330
1F
100
AcDbEntity
  8
0
  6
Continuous
 62
     7
100
AcDbPolyline
 90
        2
 70
     0
 43
0.0
 10
64238.4219
 20
1015.0026
 10
64284.149
 20
1060.7285
  0
LWPOLYLINE
  5
766
330
1F
100
AcDbEntity
  8
0
  6
Continuous
 62
     7
100
AcDbPolyline
 90
        2
 70
     0
 43
0.0
 10
64284.149
 20
1060.7285
 10
64329.876
 20
1106.4543
  0
LWPOLYLINE
  5
76A
330
1F
100
AcDbEntity
  8
0
  6
Continuous
 62
     7
100
AcDbPolyline
 90
        2
 70
     0
 43
0.0
 10
64329.876
 20
1106.4543
 10
64375.603
 20
1152.1801
  0
LWPOLYLINE
  5
76E
330
1F
100
AcDbEntity
  8
0
  6
Continuous
 62
     7
100
AcDbPolyline
 90
        2
 70
     0
 43
0.0
 10
64375.603
 20
1152.1801
 10
64403.0416
 20
1179.6239
  0
LWPOLYLINE
  5
772
330
1F
100
AcDbEntity
  8
0
  6
Continuous
 62
     7
100
AcDbPolyline
 90
        2
 70
     0
 43
0.0
 10
64160.6852
 20
982.9987
 10
64178.9655
 20
1001.2807
  0
LWPOLYLINE
  5
776
330
1F
100
AcDbEntity
  8
0
  6
Continuous
 62
     7
100
AcDbPolyline
 90
        2
 70
     0
 43
0.0
 10
64178.9655
 20
1001.2807
 10
64224.6925
 20
1047.0065
  0
LWPOLYLINE
  5
77A
330
1F
100
AcDbEntity
  8
0
  6
Continuous
 62
     7
100
AcDbPolyline
 90
        2
 70
     0
 43
0.0
 10
64224.6925
 20
1047.0065
 10
64270.4195
 20
1092.7324
  0
LWPOLYLINE
  5
77E
330
1F
100
AcDbEntity
  8
0
  6
Continuous
 62
     7
100
AcDbPolyline
 90
        2
 70
     0
 43
0.0
 10
64270.4195
 20
1092.7324
 10
64316.1466
 20
1138.4583
  0
LWPOLYLINE
  5
782
330
1F
100
AcDbEntity
  8
0
  6
Continuous
 62
     7
100
AcDbPolyline
 90
        2
 70
     0
 43
0.0
 10
64316.1466
 20
1138.4583
 10
64357.3106
 20
1179.6239
  0
LWPOLYLINE
  5
786
330
1F
100
AcDbEntity
  8
0
  6
Continuous
 62
     7
100
AcDbPolyline
 90
        2
 70
     0
 43
0.0
 10
64114.9541
 20
982.9986
 10
64119.5131
 20
987.5586
  0
LWPOLYLINE
  5
78A
330
1F
100
AcDbEntity
  8
0
  6
Continuous
 62
     7
100
AcDbPolyline
 90
        2
 70
     0
 43
0.0
 10
64119.5131
 20
987.5586
 10
64165.2401
 20
1033.2844
  0
LWPOLYLINE
  5
78E
330
1F
100
AcDbEntity
  8
0
  6
Continuous
 62
     7
100
AcDbPolyline
 90
        2
 70
     0
 43
0.0
 10
64165.2401
 20
1033.2844
 10
64210.9671
 20
1079.0103
  0
LWPOLYLINE
  5
792
330
1F
100
AcDbEntity
  8
0
  6
Continuous
 62
     7
100
AcDbPolyline
 90
        2
 70
     0
 43
0.0
 10
64210.9671
 20
1079.0103
 10
64256.6942
 20
1124.7362
  0
LWPOLYLINE
  5
796
330
1F
100
AcDbEntity
  8
0
  6
Continuous
 62
     7
100
AcDbPolyline
 90
        2
 70
     0
 43
0.0
 10
64256.6942
 20
1124.7362
 10
64302.4212
 20
1170.4619
  0
LWPOLYLINE
  5
79A
330
1F
100
AcDbEntity
  8
0
  6
Continuous
 62
     7
100
AcDbPolyline
 90
        2
 70
     0
 43
0.0
 10
64302.4212
 20
1170.4619
 10
64311.5795
 20
1179.6238
  0
LWPOLYLINE
  5
79E
330
1F
100
AcDbEntity
  8
0
  6
Continuous
 62
     7
100
AcDbPolyline
 90
        2
 70
     0
 43
0.0
 10
64069.2311
 20
982.9985
 10
64105.7958
 20
1019.5625
  0
LWPOLYLINE
  5
7A2
330
1F
100
AcDbEntity
  8
0
  6
Continuous
 62
     7
100
AcDbPolyline
 90
        2
 70
     0
 43
0.0
 10
64105.7958
 20
1019.5625
 10
64151.5228
 20
1065.2884
  0
LWPOLYLINE
  5
7A6
330
1F
100
AcDbEntity
  8
0
  6
Continuous
 62
     7
100
AcDbPolyline
 90
        2
 70
     0
 43
0.0
 10
64151.5228
 20
1065.2884
 10
64197.2498
 20
1111.0143
  0
LWPOLYLINE
  5
7AA
330
1F
100
AcDbEntity
  8
0
  6
Continuous
 62
     7
100
AcDbPolyline
 90
        2
 70
     0
 43
0.0
 10
64197.2498
 20
1111.0143
 10
64242.9769
 20
1156.7402
  0
LWPOLYLINE
  5
7AE
330
1F
100
AcDbEntity
  8
0
  6
Continuous
 62
     7
100
AcDbPolyline
 90
        2
 70
     0
 43
0.0
 10
64242.9769
 20
1156.7402
 10
64265.8565
 20
1179.6238
  0
LWPOLYLINE
  5
7B2
330
1F
100
AcDbEntity
  8
0
  6
Continuous
 62
     7
100
AcDbPolyline
 90
        2
 70
     0
 43
0.0
 10
64023.5082
 20
982.9986
 10
64046.3515
 20
1005.8406
  0
LWPOLYLINE
  5
7B6
330
1F
100
AcDbEntity
  8
0
  6
Continuous
 62
     7
100
AcDbPolyline
 90
        2
 70
     0
 43
0.0
 10
64046.3515
 20
1005.8406
 10
64092.0785
 20
1051.5665
  0
LWPOLYLINE
  5
7BA
330
1F
100
AcDbEntity
  8
0
  6
Continuous
 62
     7
100
AcDbPolyline
 90
        2
 70
     0
 43
0.0
 10
64092.0785
 20
1051.5665
 10
64137.8055
 20
1097.2922
  0
LWPOLYLINE
  5
7BE
330
1F
100
AcDbEntity
  8
0
  6
Continuous
 62
     7
100
AcDbPolyline
 90
        2
 70
     0
 43
0.0
 10
64137.8055
 20
1097.2922
 10
64183.5325
 20
1143.018
  0
LWPOLYLINE
  5
7C2
330
1F
100
AcDbEntity
  8
0
  6
Continuous
 62
     7
100
AcDbPolyline
 90
        2
 70
     0
 43
0.0
 10
64183.5325
 20
1143.018
 10
64220.1335
 20
1179.6238
  0
LWPOLYLINE
  5
7C6
330
1F
100
AcDbEntity
  8
0
  6
Continuous
 62
     7
100
AcDbPolyline
 90
        2
 70
     0
 43
0.0
 10
63977.7811
 20
982.9985
 10
63986.9031
 20
992.1187
  0
LWPOLYLINE
  5
7CA
330
1F
100
AcDbEntity
  8
0
  6
Continuous
 62
     7
100
AcDbPolyline
 90
        2
 70
     0
 43
0.0
 10
63986.9031
 20
992.1187
 10
64032.6301
 20
1037.8445
  0
LWPOLYLINE
  5
7CE
330
1F
100
AcDbEntity
  8
0
  6
Continuous
 62
     7
100
AcDbPolyline
 90
        2
 70
     0
 43
0.0
 10
64032.6301
 20
1037.8445
 10
64078.3571
 20
1083.5704
  0
LWPOLYLINE
  5
7D2
330
1F
100
AcDbEntity
  8
0
  6
Continuous
 62
     7
100
AcDbPolyline
 90
        2
 70
     0
 43
0.0
 10
64078.3571
 20
1083.5704
 10
64124.0842
 20
1129.2963
  0
LWPOLYLINE
  5
7D6
330
1F
100
AcDbEntity
  8
0
  6
Continuous
 62
     7
100
AcDbPolyline
 90
        2
 70
     0
 43
0.0
 10
64124.0842
 20
1129.2963
 10
64169.8112
 20
1175.0221
  0
LWPOLYLINE
  5
7DA
330
1F
100
AcDbEntity
  8
0
  6
Continuous
 62
     7
100
AcDbPolyline
 90
        2
 70
     0
 43
0.0
 10
64169.8112
 20
1175.0221
 10
64174.4065
 20
1179.6238
  0
LWPOLYLINE
  5
7DE
330
1F
100
AcDbEntity
  8
0
  6
Continuous
 62
     7
100
AcDbPolyline
 90
        2
 70
     0
 43
0.0
 10
63932.0581
 20
982.9985
 10
63973.1818
 20
1024.1225
  0
LWPOLYLINE
  5
7E2
330
1F
100
AcDbEntity
  8
0
  6
Continuous
 62
     7
100
AcDbPolyline
 90
        2
 70
     0
 43
0.0
 10
63973.1818
 20
1024.1225
 10
64018.9088
 20
1069.8484
  0
LWPOLYLINE
  5
7E6
330
1F
100
AcDbEntity
  8
0
  6
Continuous
 62
     7
100
AcDbPolyline
 90
        2
 70
     0
 43
0.0
 10
64018.9088
 20
1069.8484
 10
64064.6358
 20
1115.5743
  0
LWPOLYLINE
  5
7EA
330
1F
100
AcDbEntity
  8
0
  6
Continuous
 62
     7
100
AcDbPolyline
 90
        2
 70
     0
 43
0.0
 10
64064.6358
 20
1115.5743
 10
64110.3628
 20
1161.3002
  0
LWPOLYLINE
  5
7EE
330
1F
100
AcDbEntity
  8
0
  6
Continuous
 62
     7
100
AcDbPolyline
 90
        2
 70
     0
 43
0.0
 10
64110.3628
 20
1161.3002
 10
64128.6835
 20
1179.6238
  0
LWPOLYLINE
  5
7F2
330
1F
100
AcDbEntity
  8
0
  6
Continuous
 62
     7
100
AcDbPolyline
 90
        2
 70
     0
 43
0.0
 10
63886.3271
 20
982.9984
 10
63913.7293
 20
1010.4005
  0
LWPOLYLINE
  5
7F6
330
1F
100
AcDbEntity
  8
0
  6
Continuous
 62
     7
100
AcDbPolyline
 90
        2
 70
     0
 43
0.0
 10
63913.7293
 20
1010.4005
 10
63959.4564
 20
1056.1263
  0
LWPOLYLINE
  5
7FA
330
1F
100
AcDbEntity
  8
0
  6
Continuous
 62
     7
100
AcDbPolyline
 90
        2
 70
     0
 43
0.0
 10
63959.4564
 20
1056.1263
 10
64005.1834
 20
1101.8522
  0
LWPOLYLINE
  5
7FE
330
1F
100
AcDbEntity
  8
0
  6
Continuous
 62
     7
100
AcDbPolyline
 90
        2
 70
     0
 43
0.0
 10
64005.1834
 20
1101.8522
 10
64050.9104
 20
1147.5781
  0
LWPOLYLINE
  5
802
330
1F
100
AcDbEntity
  8
0
  6
Continuous
 62
     7
100
AcDbPolyline
 90
        2
 70
     0
 43
0.0
 10
64050.9104
 20
1147.5781
 10
64082.9525
 20
1179.6237
  0
LWPOLYLINE
  5
806
330
1F
100
AcDbEntity
  8
0
  6
Continuous
 62
     7
100
AcDbPolyline
 90
        2
 70
     0
 43
0.0
 10
63840.6001
 20
982.9983
 10
63854.281
 20
996.6784
  0
LWPOLYLINE
  5
80A
330
1F
100
AcDbEntity
  8
0
  6
Continuous
 62
     7
100
AcDbPolyline
 90
        2
 70
     0
 43
0.0
 10
63854.281
 20
996.6784
 10
63900.008
 20
1042.4043
  0
LWPOLYLINE
  5
80E
330
1F
100
AcDbEntity
  8
0
  6
Continuous
 62
     7
100
AcDbPolyline
 90
        2
 70
     0
 43
0.0
 10
63900.008
 20
1042.4043
 10
63945.735
 20
1088.1301
  0
LWPOLYLINE
  5
812
330
1F
100
AcDbEntity
  8
0
  6
Continuous
 62
     7
100
AcDbPolyline
 90
        2
 70
     0
 43
0.0
 10
63945.735
 20
1088.1301
 10
63991.4621
 20
1133.856
  0
LWPOLYLINE
  5
816
330
1F
100
AcDbEntity
  8
0
  6
Continuous
 62
     7
100
AcDbPolyline
 90
        2
 70
     0
 43
0.0
 10
63991.4621
 20
1133.856
 10
64037.1891
 20
1179.5819
  0
LWPOLYLINE
  5
81A
330
1F
100
AcDbEntity
  8
0
  6
Continuous
 62
     7
100
AcDbPolyline
 90
        2
 70
     0
 43
0.0
 10
64037.1891
 20
1179.5819
 10
64037.2255
 20
1179.6237
  0
LWPOLYLINE
  5
81E
330
1F
100
AcDbEntity
  8
0
  6
Continuous
 62
     7
100
AcDbPolyline
 90
        2
 70
     0
 43
0.0
 10
63794.8771
 20
982.9983
 10
63840.5596
 20
1028.6823
  0
LWPOLYLINE
  5
822
330
1F
100
AcDbEntity
  8
0
  6
Continuous
 62
     7
100
AcDbPolyline
 90
        2
 70
     0
 43
0.0
 10
63840.5596
 20
1028.6823
 10
63886.2867
 20
1074.4081
  0
LWPOLYLINE
  5
826
330
1F
100
AcDbEntity
  8
0
  6
Continuous
 62
     7
100
AcDbPolyline
 90
        2
 70
     0
 43
0.0
 10
63886.2867
 20
1074.4081
 10
63932.0137
 20
1120.134
  0
LWPOLYLINE
  5
82A
330
1F
100
AcDbEntity
  8
0
  6
Continuous
 62
     7
100
AcDbPolyline
 90
        2
 70
     0
 43
0.0
 10
63932.0137
 20
1120.134
 10
63977.7407
 20
1165.8599
  0
LWPOLYLINE
  5
82E
330
1F
100
AcDbEntity
  8
0
  6
Continuous
 62
     7
100
AcDbPolyline
 90
        2
 70
     0
 43
0.0
 10
63977.7407
 20
1165.8599
 10
63991.5025
 20
1179.6237
  0
LWPOLYLINE
  5
832
330
1F
100
AcDbEntity
  8
0
  6
Continuous
 62
     7
100
AcDbPolyline
 90
        2
 70
     0
 43
0.0
 10
63749.146
 20
982.9983
 10
63781.1072
 20
1014.9603
  0
LWPOLYLINE
  5
836
330
1F
100
AcDbEntity
  8
0
  6
Continuous
 62
     7
100
AcDbPolyline
 90
        2
 70
     0
 43
0.0
 10
63781.1072
 20
1014.9603
 10
63826.8343
 20
1060.6861
  0
LWPOLYLINE
  5
83A
330
1F
100
AcDbEntity
  8
0
  6
Continuous
 62
     7
100
AcDbPolyline
 90
        2
 70
     0
 43
0.0
 10
63826.8343
 20
1060.6861
 10
63872.5613
 20
1106.412
  0
LWPOLYLINE
  5
83E
330
1F
100
AcDbEntity
  8
0
  6
Continuous
 62
     7
100
AcDbPolyline
 90
        2
 70
     0
 43
0.0
 10
63872.5613
 20
1106.412
 10
63918.2883
 20
1152.1379
  0
LWPOLYLINE
  5
842
330
1F
100
AcDbEntity
  8
0
  6
Continuous
 62
     7
100
AcDbPolyline
 90
        2
 70
     0
 43
0.0
 10
63918.2883
 20
1152.1379
 10
63945.7714
 20
1179.6235
  0
LWPOLYLINE
  5
846
330
1F
100
AcDbEntity
  8
0
  6
Continuous
 62
     7
100
AcDbPolyline
 90
        2
 70
     0
 43
0.0
 10
63703.419
 20
982.9982
 10
63721.6589
 20
1001.2381
  0
LWPOLYLINE
  5
84A
330
1F
100
AcDbEntity
  8
0
  6
Continuous
 62
     7
100
AcDbPolyline
 90
        2
 70
     0
 43
0.0
 10
63721.6589
 20
1001.2381
 10
63767.3859
 20
1046.9635
  0
LWPOLYLINE
  5
84E
330
1F
100
AcDbEntity
  8
0
  6
Continuous
 62
     7
100
AcDbPolyline
 90
        2
 70
     0
 43
0.0
 10
63767.3859
 20
1046.9635
 10
63813.1129
 20
1092.6888
  0
LWPOLYLINE
  5
852
330
1F
100
AcDbEntity
  8
0
  6
Continuous
 62
     7
100
AcDbPolyline
 90
        2
 70
     0
 43
0.0
 10
63813.1129
 20
1092.6888
 10
63858.8399
 20
1138.4142
  0
LWPOLYLINE
  5
856
330
1F
100
AcDbEntity
  8
0
  6
Continuous
 62
     7
100
AcDbPolyline
 90
        2
 70
     0
 43
0.0
 10
63858.8399
 20
1138.4142
 10
63900.0484
 20
1179.6235
  0
LWPOLYLINE
  5
85A
330
1F
100
AcDbEntity
  8
0
  6
Continuous
 62
     7
100
AcDbPolyline
 90
        2
 70
     0
 43
0.0
 10
63657.696
 20
982.9981
 10
63662.2105
 20
987.5142
  0
LWPOLYLINE
  5
85E
330
1F
100
AcDbEntity
  8
0
  6
Continuous
 62
     7
100
AcDbPolyline
 90
        2
 70
     0
 43
0.0
 10
63662.2105
 20
987.5142
 10
63707.9375
 20
1033.2401
  0
LWPOLYLINE
  5
862
330
1F
100
AcDbEntity
  8
0
  6
Continuous
 62
     7
100
AcDbPolyline
 90
        2
 70
     0
 43
0.0
 10
63707.9375
 20
1033.2401
 10
63753.6646
 20
1078.9659
  0
LWPOLYLINE
  5
866
330
1F
100
AcDbEntity
  8
0
  6
Continuous
 62
     7
100
AcDbPolyline
 90
        2
 70
     0
 43
0.0
 10
63753.6646
 20
1078.9659
 10
63799.3916
 20
1124.6918
  0
LWPOLYLINE
  5
86A
330
1F
100
AcDbEntity
  8
0
  6
Continuous
 62
     7
100
AcDbPolyline
 90
        2
 70
     0
 43
0.0
 10
63799.3916
 20
1124.6918
 10
63845.1186
 20
1170.4177
  0
LWPOLYLINE
  5
86E
330
1F
100
AcDbEntity
  8
0
  6
Continuous
 62
     7
100
AcDbPolyline
 90
        2
 70
     0
 43
0.0
 10
63845.1186
 20
1170.4177
 10
63854.3214
 20
1179.6235
  0
LWPOLYLINE
  5
872
330
1F
100
AcDbEntity
  8
0
  6
Continuous
 62
     7
100
AcDbPolyline
 90
        2
 70
     0
 43
0.0
 10
63611.9649
 20
982.9981
 10
63648.4851
 20
1019.5176
  0
LWPOLYLINE
  5
876
330
1F
100
AcDbEntity
  8
0
  6
Continuous
 62
     7
100
AcDbPolyline
 90
        2
 70
     0
 43
0.0
 10
63648.4851
 20
1019.5176
 10
63694.2121
 20
1065.243
  0
LWPOLYLINE
  5
87A
330
1F
100
AcDbEntity
  8
0
  6
Continuous
 62
     7
100
AcDbPolyline
 90
        2
 70
     0
 43
0.0
 10
63694.2121
 20
1065.243
 10
63739.9392
 20
1110.9683
  0
LWPOLYLINE
  5
87E
330
1F
100
AcDbEntity
  8
0
  6
Continuous
 62
     7
100
AcDbPolyline
 90
        2
 70
     0
 43
0.0
 10
63739.9392
 20
1110.9683
 10
63785.6662
 20
1156.6937
  0
LWPOLYLINE
  5
882
330
1F
100
AcDbEntity
  8
0
  6
Continuous
 62
     7
100
AcDbPolyline
 90
        2
 70
     0
 43
0.0
 10
63785.6662
 20
1156.6937
 10
63808.5944
 20
1179.6234
  0
LWPOLYLINE
  5
886
330
1F
100
AcDbEntity
  8
0
  6
Continuous
 62
     7
100
AcDbPolyline
 90
        2
 70
     0
 43
0.0
 10
63566.242
 20
982.998
 10
63589.0368
 20
1005.7939
  0
LWPOLYLINE
  5
88A
330
1F
100
AcDbEntity
  8
0
  6
Continuous
 62
     7
100
AcDbPolyline
 90
        2
 70
     0
 43
0.0
 10
63589.0368
 20
1005.7939
 10
63634.7638
 20
1051.5197
  0
LWPOLYLINE
  5
88E
330
1F
100
AcDbEntity
  8
0
  6
Continuous
 62
     7
100
AcDbPolyline
 90
        2
 70
     0
 43
0.0
 10
63634.7638
 20
1051.5197
 10
63680.4908
 20
1097.2456
  0
LWPOLYLINE
  5
892
330
1F
100
AcDbEntity
  8
0
  6
Continuous
 62
     7
100
AcDbPolyline
 90
        2
 70
     0
 43
0.0
 10
63680.4908
 20
1097.2456
 10
63726.2178
 20
1142.9715
  0
LWPOLYLINE
  5
896
330
1F
100
AcDbEntity
  8
0
  6
Continuous
 62
     7
100
AcDbPolyline
 90
        2
 70
     0
 43
0.0
 10
63726.2178
 20
1142.9715
 10
63762.8673
 20
1179.6234
  0
LWPOLYLINE
  5
89A
330
1F
100
AcDbEntity
  8
0
  6
Continuous
 62
     7
100
AcDbPolyline
 90
        2
 70
     0
 43
0.0
 10
63520.519
 20
982.998
 10
63529.5924
 20
992.0719
  0
LWPOLYLINE
  5
89E
330
1F
100
AcDbEntity
  8
0
  6
Continuous
 62
     7
100
AcDbPolyline
 90
        2
 70
     0
 43
0.0
 10
63529.5924
 20
992.0719
 10
63575.3195
 20
1037.7977
  0
LWPOLYLINE
  5
8A2
330
1F
100
AcDbEntity
  8
0
  6
Continuous
 62
     7
100
AcDbPolyline
 90
        2
 70
     0
 43
0.0
 10
63575.3195
 20
1037.7977
 10
63621.0465
 20
1083.5235
  0
LWPOLYLINE
  5
8A6
330
1F
100
AcDbEntity
  8
0
  6
Continuous
 62
     7
100
AcDbPolyline
 90
        2
 70
     0
 43
0.0
 10
63621.0465
 20
1083.5235
 10
63666.7735
 20
1129.2494
  0
LWPOLYLINE
  5
8AA
330
1F
100
AcDbEntity
  8
0
  6
Continuous
 62
     7
100
AcDbPolyline
 90
        2
 70
     0
 43
0.0
 10
63666.7735
 20
1129.2494
 10
63712.5005
 20
1174.9753
  0
LWPOLYLINE
  5
8AE
330
1F
100
AcDbEntity
  8
0
  6
Continuous
 62
     7
100
AcDbPolyline
 90
        2
 70
     0
 43
0.0
 10
63712.5005
 20
1174.9753
 10
63717.1444
 20
1179.6234
  0
LWPOLYLINE
  5
8B2
330
1F
100
AcDbEntity
  8
0
  6
Continuous
 62
     7
100
AcDbPolyline
 90
        2
 70
     0
 43
0.0
 10
63474.7839
 20
982.998
 10
63515.863
 20
1024.0757
  0
LWPOLYLINE
  5
8B6
330
1F
100
AcDbEntity
  8
0
  6
Continuous
 62
     7
100
AcDbPolyline
 90
        2
 70
     0
 43
0.0
 10
63515.863
 20
1024.0757
 10
63561.59
 20
1069.8015
  0
LWPOLYLINE
  5
8BA
330
1F
100
AcDbEntity
  8
0
  6
Continuous
 62
     7
100
AcDbPolyline
 90
        2
 70
     0
 43
0.0
 10
63561.59
 20
1069.8015
 10
63607.3171
 20
1115.5274
  0
LWPOLYLINE
  5
8BE
330
1F
100
AcDbEntity
  8
0
  6
Continuous
 62
     7
100
AcDbPolyline
 90
        2
 70
     0
 43
0.0
 10
63607.3171
 20
1115.5274
 10
63653.0441
 20
1161.2533
  0
LWPOLYLINE
  5
8C2
330
1F
100
AcDbEntity
  8
0
  6
Continuous
 62
     7
100
AcDbPolyline
 90
        2
 70
     0
 43
0.0
 10
63653.0441
 20
1161.2533
 10
63671.4093
 20
1179.6233
  0
LWPOLYLINE
  5
8C6
330
1F
100
AcDbEntity
  8
0
  6
Continuous
 62
     7
100
AcDbPolyline
 90
        2
 70
     0
 43
0.0
 10
63444.4555
 20
998.3929
 10
63471.8092
 20
1025.7486
  0
LWPOLYLINE
  5
8CA
330
1F
100
AcDbEntity
  8
0
  6
Continuous
 62
     7
100
AcDbPolyline
 90
        2
 70
     0
 43
0.0
 10
63471.8092
 20
1025.7486
 10
63517.5362
 20
1071.4744
  0
LWPOLYLINE
  5
8CE
330
1F
100
AcDbEntity
  8
0
  6
Continuous
 62
     7
100
AcDbPolyline
 90
        2
 70
     0
 43
0.0
 10
63517.5362
 20
1071.4744
 10
63563.2633
 20
1117.2002
  0
LWPOLYLINE
  5
8D2
330
1F
100
AcDbEntity
  8
0
  6
Continuous
 62
     7
100
AcDbPolyline
 90
        2
 70
     0
 43
0.0
 10
63563.2633
 20
1117.2002
 10
63608.9903
 20
1162.9259
  0
LWPOLYLINE
  5
8D6
330
1F
100
AcDbEntity
  8
0
  6
Continuous
 62
     7
100
AcDbPolyline
 90
        2
 70
     0
 43
0.0
 10
63608.9903
 20
1162.9259
 10
63625.6863
 20
1179.6233
  0
LWPOLYLINE
  5
8DA
330
1F
100
AcDbEntity
  8
0
  6
Continuous
 62
     7
100
AcDbPolyline
 90
        2
 70
     0
 43
0.0
 10
63444.4555
 20
1044.1166
 10
63473.4825
 20
1073.1454
  0
LWPOLYLINE
  5
8DE
330
1F
100
AcDbEntity
  8
0
  6
Continuous
 62
     7
100
AcDbPolyline
 90
        2
 70
     0
 43
0.0
 10
63473.4825
 20
1073.1454
 10
63519.2095
 20
1118.8718
  0
LWPOLYLINE
  5
8E2
330
1F
100
AcDbEntity
  8
0
  6
Continuous
 62
     7
100
AcDbPolyline
 90
        2
 70
     0
 43
0.0
 10
63519.2095
 20
1118.8718
 10
63564.9365
 20
1164.5981
  0
LWPOLYLINE
  5
8E6
330
1F
100
AcDbEntity
  8
0
  6
Continuous
 62
     7
100
AcDbPolyline
 90
        2
 70
     0
 43
0.0
 10
63564.9365
 20
1164.5981
 10
63579.9593
 20
1179.6233
  0
LWPOLYLINE
  5
8EA
330
1F
100
AcDbEntity
  8
0
  6
Continuous
 62
     7
100
AcDbPolyline
 90
        2
 70
     0
 43
0.0
 10
63444.4555
 20
1089.8459
 10
63475.1557
 20
1120.5468
  0
LWPOLYLINE
  5
8EE
330
1F
100
AcDbEntity
  8
0
  6
Continuous
 62
     7
100
AcDbPolyline
 90
        2
 70
     0
 43
0.0
 10
63475.1557
 20
1120.5468
 10
63520.8827
 20
1166.2728
  0
LWPOLYLINE
  5
8F2
330
1F
100
AcDbEntity
  8
0
  6
Continuous
 62
     7
100
AcDbPolyline
 90
        2
 70
     0
 43
0.0
 10
63520.8827
 20
1166.2728
 10
63534.2322
 20
1179.6232
  0
LWPOLYLINE
  5
8F6
330
1F
100
AcDbEntity
  8
0
  6
Continuous
 62
     7
100
AcDbPolyline
 90
        2
 70
     0
 43
0.0
 10
63444.4555
 20
1135.5696
 10
63476.8289
 20
1167.9465
  0
LWPOLYLINE
  5
8FA
330
1F
100
AcDbEntity
  8
0
  6
Continuous
 62
     7
100
AcDbPolyline
 90
        2
 70
     0
 43
0.0
 10
63476.8289
 20
1167.9465
 10
63488.5052
 20
1179.6232
  0
LWPOLYLINE
  5
8FE
330
1F
100
AcDbEntity
  8
0
  6
Continuous
 62
     7
100
AcDbPolyline
 90
        2
 70
     0
 43
0.0
 10
64297.8622
 20
982.9988
 10
64331.913
 20
1017.0484
  0
LWPOLYLINE
  5
902
330
1F
100
AcDbEntity
  8
0
  6
Continuous
 62
     7
100
AcDbPolyline
 90
        2
 70
     0
 43
0.0
 10
64331.913
 20
1017.0484
 10
64377.64
 20
1062.7743
  0
LWPOLYLINE
  5
906
330
1F
100
AcDbEntity
  8
0
  6
Continuous
 62
     7
100
AcDbPolyline
 90
        2
 70
     0
 43
0.0
 10
64377.64
 20
1062.7743
 10
64423.367
 20
1108.5002
  0
LWPOLYLINE
  5
90A
330
1F
100
AcDbEntity
  8
0
  6
Continuous
 62
     7
100
AcDbPolyline
 90
        2
 70
     0
 43
0.0
 10
64423.367
 20
1108.5002
 10
64469.094
 20
1154.2261
  0
LWPOLYLINE
  5
90E
330
1F
100
AcDbEntity
  8
0
  6
Continuous
 62
     7
100
AcDbPolyline
 90
        2
 70
     0
 43
0.0
 10
64469.094
 20
1154.2261
 10
64494.4876
 20
1179.624
  0
LWPOLYLINE
  5
912
330
1F
100
AcDbEntity
  8
0
  6
Continuous
 62
     7
100
AcDbPolyline
 90
        2
 70
     0
 43
0.0
 10
64343.5933
 20
982.9988
 10
64363.9227
 20
1003.3265
  0
LWPOLYLINE
  5
916
330
1F
100
AcDbEntity
  8
0
  6
Continuous
 62
     7
100
AcDbPolyline
 90
        2
 70
     0
 43
0.0
 10
64363.9227
 20
1003.3265
 10
64409.6497
 20
1049.0524
  0
LWPOLYLINE
  5
91A
330
1F
100
AcDbEntity
  8
0
  6
Continuous
 62
     7
100
AcDbPolyline
 90
        2
 70
     0
 43
0.0
 10
64409.6497
 20
1049.0524
 10
64455.3767
 20
1094.7782
  0
LWPOLYLINE
  5
91E
330
1F
100
AcDbEntity
  8
0
  6
Continuous
 62
     7
100
AcDbPolyline
 90
        2
 70
     0
 43
0.0
 10
64455.3767
 20
1094.7782
 10
64501.1038
 20
1140.5041
  0
LWPOLYLINE
  5
922
330
1F
100
AcDbEntity
  8
0
  6
Continuous
 62
     7
100
AcDbPolyline
 90
        2
 70
     0
 43
0.0
 10
64501.1038
 20
1140.5041
 10
64540.2187
 20
1179.624
  0
LWPOLYLINE
  5
926
330
1F
100
AcDbEntity
  8
0
  6
Continuous
 62
     7
100
AcDbPolyline
 90
        2
 70
     0
 43
0.0
 10
64389.3163
 20
982.9989
 10
64395.9203
 20
989.6047
  0
LWPOLYLINE
  5
92A
330
1F
100
AcDbEntity
  8
0
  6
Continuous
 62
     7
100
AcDbPolyline
 90
        2
 70
     0
 43
0.0
 10
64395.9203
 20
989.6047
 10
64441.6473
 20
1035.3305
  0
LWPOLYLINE
  5
92E
330
1F
100
AcDbEntity
  8
0
  6
Continuous
 62
     7
100
AcDbPolyline
 90
        2
 70
     0
 43
0.0
 10
64441.6473
 20
1035.3305
 10
64487.3743
 20
1081.0563
  0
LWPOLYLINE
  5
932
330
1F
100
AcDbEntity
  8
0
  6
Continuous
 62
     7
100
AcDbPolyline
 90
        2
 70
     0
 43
0.0
 10
64487.3743
 20
1081.0563
 10
64533.1014
 20
1126.7821
  0
LWPOLYLINE
  5
936
330
1F
100
AcDbEntity
  8
0
  6
Continuous
 62
     7
100
AcDbPolyline
 90
        2
 70
     0
 43
0.0
 10
64533.1014
 20
1126.7821
 10
64578.8284
 20
1172.5079
  0
LWPOLYLINE
  5
93A
330
1F
100
AcDbEntity
  8
0
  6
Continuous
 62
     7
100
AcDbPolyline
 90
        2
 70
     0
 43
0.0
 10
64578.8284
 20
1172.5079
 10
64585.9417
 20
1179.624
  0
LWPOLYLINE
  5
93E
330
1F
100
AcDbEntity
  8
0
  6
Continuous
 62
     7
100
AcDbPolyline
 90
        2
 70
     0
 43
0.0
 10
64435.0473
 20
982.999
 10
64473.657
 20
1021.6087
  0
LWPOLYLINE
  5
942
330
1F
100
AcDbEntity
  8
0
  6
Continuous
 62
     7
100
AcDbPolyline
 90
        2
 70
     0
 43
0.0
 10
64473.657
 20
1021.6087
 10
64519.3841
 20
1067.3345
  0
LWPOLYLINE
  5
946
330
1F
100
AcDbEntity
  8
0
  6
Continuous
 62
     7
100
AcDbPolyline
 90
        2
 70
     0
 43
0.0
 10
64519.3841
 20
1067.3345
 10
64565.1111
 20
1113.0604
  0
LWPOLYLINE
  5
94A
330
1F
100
AcDbEntity
  8
0
  6
Continuous
 62
     7
100
AcDbPolyline
 90
        2
 70
     0
 43
0.0
 10
64565.1111
 20
1113.0604
 10
64610.8381
 20
1158.7862
  0
LWPOLYLINE
  5
94E
330
1F
100
AcDbEntity
  8
0
  6
Continuous
 62
     7
100
AcDbPolyline
 90
        2
 70
     0
 43
0.0
 10
64610.8381
 20
1158.7862
 10
64631.6727
 20
1179.6242
  0
LWPOLYLINE
  5
952
330
1F
100
AcDbEntity
  8
0
  6
Continuous
 62
     7
100
AcDbPolyline
 90
        2
 70
     0
 43
0.0
 10
64480.7703
 20
982.999
 10
64505.6587
 20
1007.8868
  0
LWPOLYLINE
  5
956
330
1F
100
AcDbEntity
  8
0
  6
Continuous
 62
     7
100
AcDbPolyline
 90
        2
 70
     0
 43
0.0
 10
64505.6587
 20
1007.8868
 10
64551.3857
 20
1053.6127
  0
LWPOLYLINE
  5
95A
330
1F
100
AcDbEntity
  8
0
  6
Continuous
 62
     7
100
AcDbPolyline
 90
        2
 70
     0
 43
0.0
 10
64551.3857
 20
1053.6127
 10
64597.1127
 20
1099.3384
  0
LWPOLYLINE
  5
95E
330
1F
100
AcDbEntity
  8
0
  6
Continuous
 62
     7
100
AcDbPolyline
 90
        2
 70
     0
 43
0.0
 10
64597.1127
 20
1099.3384
 10
64642.8398
 20
1145.0642
  0
LWPOLYLINE
  5
962
330
1F
100
AcDbEntity
  8
0
  6
Continuous
 62
     7
100
AcDbPolyline
 90
        2
 70
     0
 43
0.0
 10
64642.8398
 20
1145.0642
 10
64677.3957
 20
1179.6242
  0
LWPOLYLINE
  5
966
330
1F
100
AcDbEntity
  8
0
  6
Continuous
 62
     7
100
AcDbPolyline
 90
        2
 70
     0
 43
0.0
 10
64526.4933
 20
982.999
 10
64537.6603
 20
994.165
  0
LWPOLYLINE
  5
96A
330
1F
100
AcDbEntity
  8
0
  6
Continuous
 62
     7
100
AcDbPolyline
 90
        2
 70
     0
 43
0.0
 10
64537.6603
 20
994.165
 10
64583.3873
 20
1039.8908
  0
LWPOLYLINE
  5
96E
330
1F
100
AcDbEntity
  8
0
  6
Continuous
 62
     7
100
AcDbPolyline
 90
        2
 70
     0
 43
0.0
 10
64583.3873
 20
1039.8908
 10
64629.1144
 20
1085.6166
  0
LWPOLYLINE
  5
972
330
1F
100
AcDbEntity
  8
0
  6
Continuous
 62
     7
100
AcDbPolyline
 90
        2
 70
     0
 43
0.0
 10
64629.1144
 20
1085.6166
 10
64674.8414
 20
1131.3423
  0
LWPOLYLINE
  5
976
330
1F
100
AcDbEntity
  8
0
  6
Continuous
 62
     7
100
AcDbPolyline
 90
        2
 70
     0
 43
0.0
 10
64674.8414
 20
1131.3423
 10
64720.5684
 20
1177.0681
  0
LWPOLYLINE
  5
97A
330
1F
100
AcDbEntity
  8
0
  6
Continuous
 62
     7
100
AcDbPolyline
 90
        2
 70
     0
 43
0.0
 10
64720.5684
 20
1177.0681
 10
64723.1187
 20
1179.6242
  0
LWPOLYLINE
  5
97E
330
1F
100
AcDbEntity
  8
0
  6
Continuous
 62
     7
100
AcDbPolyline
 90
        2
 70
     0
 43
0.0
 10
64572.2244
 20
982.9991
 10
64615.393
 20
1026.169
  0
LWPOLYLINE
  5
982
330
1F
100
AcDbEntity
  8
0
  6
Continuous
 62
     7
100
AcDbPolyline
 90
        2
 70
     0
 43
0.0
 10
64615.393
 20
1026.169
 10
64661.1201
 20
1071.8949
  0
LWPOLYLINE
  5
986
330
1F
100
AcDbEntity
  8
0
  6
Continuous
 62
     7
100
AcDbPolyline
 90
        2
 70
     0
 43
0.0
 10
64661.1201
 20
1071.8949
 10
64706.8471
 20
1117.6206
  0
LWPOLYLINE
  5
98A
330
1F
100
AcDbEntity
  8
0
  6
Continuous
 62
     7
100
AcDbPolyline
 90
        2
 70
     0
 43
0.0
 10
64706.8471
 20
1117.6206
 10
64752.5741
 20
1163.3464
  0
LWPOLYLINE
  5
98E
330
1F
100
AcDbEntity
  8
0
  6
Continuous
 62
     7
100
AcDbPolyline
 90
        2
 70
     0
 43
0.0
 10
64752.5741
 20
1163.3464
 10
64768.8498
 20
1179.6243
  0
LWPOLYLINE
  5
992
330
1F
100
AcDbEntity
  8
0
  6
Continuous
 62
     7
100
AcDbPolyline
 90
        2
 70
     0
 43
0.0
 10
64617.9554
 20
982.9992
 10
64647.4028
 20
1012.4471
  0
LWPOLYLINE
  5
996
330
1F
100
AcDbEntity
  8
0
  6
Continuous
 62
     7
100
AcDbPolyline
 90
        2
 70
     0
 43
0.0
 10
64647.4028
 20
1012.4471
 10
64693.1298
 20
1058.1729
  0
LWPOLYLINE
  5
99A
330
1F
100
AcDbEntity
  8
0
  6
Continuous
 62
     7
100
AcDbPolyline
 90
        2
 70
     0
 43
0.0
 10
64693.1298
 20
1058.1729
 10
64738.8568
 20
1103.8988
  0
LWPOLYLINE
  5
99E
330
1F
100
AcDbEntity
  8
0
  6
Continuous
 62
     7
100
AcDbPolyline
 90
        2
 70
     0
 43
0.0
 10
64738.8568
 20
1103.8988
 10
64784.5838
 20
1149.6245
  0
LWPOLYLINE
  5
9A2
330
1F
100
AcDbEntity
  8
0
  6
Continuous
 62
     7
100
AcDbPolyline
 90
        2
 70
     0
 43
0.0
 10
64784.5838
 20
1149.6245
 10
64814.5808
 20
1179.6243
  0
LWPOLYLINE
  5
9A6
330
1F
100
AcDbEntity
  8
0
  6
Continuous
 62
     7
100
AcDbPolyline
 90
        2
 70
     0
 43
0.0
 10
64663.6784
 20
982.9992
 10
64679.4044
 20
998.7253
  0
LWPOLYLINE
  5
9AA
330
1F
100
AcDbEntity
  8
0
  6
Continuous
 62
     7
100
AcDbPolyline
 90
        2
 70
     0
 43
0.0
 10
64679.4044
 20
998.7253
 10
64725.1314
 20
1044.4512
  0
LWPOLYLINE
  5
9AE
330
1F
100
AcDbEntity
  8
0
  6
Continuous
 62
     7
100
AcDbPolyline
 90
        2
 70
     0
 43
0.0
 10
64725.1314
 20
1044.4512
 10
64770.8584
 20
1090.1769
  0
LWPOLYLINE
  5
9B2
330
1F
100
AcDbEntity
  8
0
  6
Continuous
 62
     7
100
AcDbPolyline
 90
        2
 70
     0
 43
0.0
 10
64770.8584
 20
1090.1769
 10
64816.5855
 20
1135.9027
  0
LWPOLYLINE
  5
9B6
330
1F
100
AcDbEntity
  8
0
  6
Continuous
 62
     7
100
AcDbPolyline
 90
        2
 70
     0
 43
0.0
 10
64816.5855
 20
1135.9027
 10
64860.3038
 20
1179.6243
  0
LWPOLYLINE
  5
9BA
330
1F
100
AcDbEntity
  8
0
  6
Continuous
 62
     7
100
AcDbPolyline
 90
        2
 70
     0
 43
0.0
 10
64709.4095
 20
982.9993
 10
64711.4141
 20
985.0036
  0
LWPOLYLINE
  5
9BE
330
1F
100
AcDbEntity
  8
0
  6
Continuous
 62
     7
100
AcDbPolyline
 90
        2
 70
     0
 43
0.0
 10
64711.4141
 20
985.0036
 10
64757.1411
 20
1030.7294
  0
LWPOLYLINE
  5
9C2
330
1F
100
AcDbEntity
  8
0
  6
Continuous
 62
     7
100
AcDbPolyline
 90
        2
 70
     0
 43
0.0
 10
64757.1411
 20
1030.7294
 10
64802.8682
 20
1076.4552
  0
LWPOLYLINE
  5
9C6
330
1F
100
AcDbEntity
  8
0
  6
Continuous
 62
     7
100
AcDbPolyline
 90
        2
 70
     0
 43
0.0
 10
64802.8682
 20
1076.4552
 10
64848.5952
 20
1122.181
  0
LWPOLYLINE
  5
9CA
330
1F
100
AcDbEntity
  8
0
  6
Continuous
 62
     7
100
AcDbPolyline
 90
        2
 70
     0
 43
0.0
 10
64848.5952
 20
1122.181
 10
64894.3222
 20
1167.9067
  0
LWPOLYLINE
  5
9CE
330
1F
100
AcDbEntity
  8
0
  6
Continuous
 62
     7
100
AcDbPolyline
 90
        2
 70
     0
 43
0.0
 10
64894.3222
 20
1167.9067
 10
64906.0349
 20
1179.6244
  0
LWPOLYLINE
  5
9D2
330
1F
100
AcDbEntity
  8
0
  6
Continuous
 62
     7
100
AcDbPolyline
 90
        2
 70
     0
 43
0.0
 10
64755.1325
 20
982.9993
 10
64789.1387
 20
1017.0075
  0
LWPOLYLINE
  5
9D6
330
1F
100
AcDbEntity
  8
0
  6
Continuous
 62
     7
100
AcDbPolyline
 90
        2
 70
     0
 43
0.0
 10
64789.1387
 20
1017.0075
 10
64834.8658
 20
1062.7334
  0
LWPOLYLINE
  5
9DA
330
1F
100
AcDbEntity
  8
0
  6
Continuous
 62
     7
100
AcDbPolyline
 90
        2
 70
     0
 43
0.0
 10
64834.8658
 20
1062.7334
 10
64880.5928
 20
1108.4591
  0
LWPOLYLINE
  5
9DE
330
1F
100
AcDbEntity
  8
0
  6
Continuous
 62
     7
100
AcDbPolyline
 90
        2
 70
     0
 43
0.0
 10
64880.5928
 20
1108.4591
 10
64926.3198
 20
1154.1849
  0
LWPOLYLINE
  5
9E2
330
1F
100
AcDbEntity
  8
0
  6
Continuous
 62
     7
100
AcDbPolyline
 90
        2
 70
     0
 43
0.0
 10
64926.3198
 20
1154.1849
 10
64951.7578
 20
1179.6244
  0
LWPOLYLINE
  5
9E6
330
1F
100
AcDbEntity
  8
0
  6
Continuous
 62
     7
100
AcDbPolyline
 90
        2
 70
     0
 43
0.0
 10
64800.8554
 20
982.9993
 10
64821.1404
 20
1003.2857
  0
LWPOLYLINE
  5
9EA
330
1F
100
AcDbEntity
  8
0
  6
Continuous
 62
     7
100
AcDbPolyline
 90
        2
 70
     0
 43
0.0
 10
64821.1404
 20
1003.2857
 10
64866.8674
 20
1049.0115
  0
LWPOLYLINE
  5
9EE
330
1F
100
AcDbEntity
  8
0
  6
Continuous
 62
     7
100
AcDbPolyline
 90
        2
 70
     0
 43
0.0
 10
64866.8674
 20
1049.0115
 10
64912.5944
 20
1094.7374
  0
LWPOLYLINE
  5
9F2
330
1F
100
AcDbEntity
  8
0
  6
Continuous
 62
     7
100
AcDbPolyline
 90
        2
 70
     0
 43
0.0
 10
64912.5944
 20
1094.7374
 10
64958.3215
 20
1140.4632
  0
LWPOLYLINE
  5
9F6
330
1F
100
AcDbEntity
  8
0
  6
Continuous
 62
     7
100
AcDbPolyline
 90
        2
 70
     0
 43
0.0
 10
64958.3215
 20
1140.4632
 10
64997.4808
 20
1179.6246
  0
LWPOLYLINE
  5
9FA
330
1F
100
AcDbEntity
  8
0
  6
Continuous
 62
     7
100
AcDbPolyline
 90
        2
 70
     0
 43
0.0
 10
64846.5865
 20
982.9994
 10
64853.1501
 20
989.5638
  0
LWPOLYLINE
  5
9FE
330
1F
100
AcDbEntity
  8
0
  6
Continuous
 62
     7
100
AcDbPolyline
 90
        2
 70
     0
 43
0.0
 10
64853.1501
 20
989.5638
 10
64898.8771
 20
1035.2897
  0
LWPOLYLINE
  5
A02
330
1F
100
AcDbEntity
  8
0
  6
Continuous
 62
     7
100
AcDbPolyline
 90
        2
 70
     0
 43
0.0
 10
64898.8771
 20
1035.2897
 10
64944.6042
 20
1081.0154
  0
LWPOLYLINE
  5
A06
330
1F
100
AcDbEntity
  8
0
  6
Continuous
 62
     7
100
AcDbPolyline
 90
        2
 70
     0
 43
0.0
 10
64944.6042
 20
1081.0154
 10
64990.3312
 20
1126.7412
  0
LWPOLYLINE
  5
A0A
330
1F
100
AcDbEntity
  8
0
  6
Continuous
 62
     7
100
AcDbPolyline
 90
        2
 70
     0
 43
0.0
 10
64990.3312
 20
1126.7412
 10
65036.0582
 20
1172.467
  0
LWPOLYLINE
  5
A0E
330
1F
100
AcDbEntity
  8
0
  6
Continuous
 62
     7
100
AcDbPolyline
 90
        2
 70
     0
 43
0.0
 10
65036.0582
 20
1172.467
 10
65043.2119
 20
1179.6246
  0
LWPOLYLINE
  5
A12
330
1F
100
AcDbEntity
  8
0
  6
Continuous
 62
     7
100
AcDbPolyline
 90
        2
 70
     0
 43
0.0
 10
64892.3095
 20
982.9995
 10
64930.8788
 20
1021.5679
  0
LWPOLYLINE
  5
A16
330
1F
100
AcDbEntity
  8
0
  6
Continuous
 62
     7
100
AcDbPolyline
 90
        2
 70
     0
 43
0.0
 10
64930.8788
 20
1021.5679
 10
64976.6058
 20
1067.2937
  0
LWPOLYLINE
  5
A1A
330
1F
100
AcDbEntity
  8
0
  6
Continuous
 62
     7
100
AcDbPolyline
 90
        2
 70
     0
 43
0.0
 10
64976.6058
 20
1067.2937
 10
65022.3328
 20
1113.0195
  0
LWPOLYLINE
  5
A1E
330
1F
100
AcDbEntity
  8
0
  6
Continuous
 62
     7
100
AcDbPolyline
 90
        2
 70
     0
 43
0.0
 10
65022.3328
 20
1113.0195
 10
65068.0599
 20
1158.7452
  0
LWPOLYLINE
  5
A22
330
1F
100
AcDbEntity
  8
0
  6
Continuous
 62
     7
100
AcDbPolyline
 90
        2
 70
     0
 43
0.0
 10
65068.0599
 20
1158.7452
 10
65088.9349
 20
1179.6246
  0
LWPOLYLINE
  5
A26
330
1F
100
AcDbEntity
  8
0
  6
Continuous
 62
     7
100
AcDbPolyline
 90
        2
 70
     0
 43
0.0
 10
64938.0406
 20
982.9995
 10
64962.8885
 20
1007.8461
  0
LWPOLYLINE
  5
A2A
330
1F
100
AcDbEntity
  8
0
  6
Continuous
 62
     7
100
AcDbPolyline
 90
        2
 70
     0
 43
0.0
 10
64962.8885
 20
1007.8461
 10
65008.6155
 20
1053.5719
  0
LWPOLYLINE
  5
A2E
330
1F
100
AcDbEntity
  8
0
  6
Continuous
 62
     7
100
AcDbPolyline
 90
        2
 70
     0
 43
0.0
 10
65008.6155
 20
1053.5719
 10
65054.3426
 20
1099.2978
  0
LWPOLYLINE
  5
A32
330
1F
100
AcDbEntity
  8
0
  6
Continuous
 62
     7
100
AcDbPolyline
 90
        2
 70
     0
 43
0.0
 10
65054.3426
 20
1099.2978
 10
65100.0696
 20
1145.0235
  0
LWPOLYLINE
  5
A36
330
1F
100
AcDbEntity
  8
0
  6
Continuous
 62
     7
100
AcDbPolyline
 90
        2
 70
     0
 43
0.0
 10
65100.0696
 20
1145.0235
 10
65134.6659
 20
1179.6247
  0
LWPOLYLINE
  5
A3A
330
1F
100
AcDbEntity
  8
0
  6
Continuous
 62
     7
100
AcDbPolyline
 90
        2
 70
     0
 43
0.0
 10
64983.7635
 20
982.9996
 10
64994.8901
 20
994.1243
  0
LWPOLYLINE
  5
A3E
330
1F
100
AcDbEntity
  8
0
  6
Continuous
 62
     7
100
AcDbPolyline
 90
        2
 70
     0
 43
0.0
 10
64994.8901
 20
994.1243
 10
65040.6172
 20
1039.8501
  0
LWPOLYLINE
  5
A42
330
1F
100
AcDbEntity
  8
0
  6
Continuous
 62
     7
100
AcDbPolyline
 90
        2
 70
     0
 43
0.0
 10
65040.6172
 20
1039.8501
 10
65086.3442
 20
1085.5759
  0
LWPOLYLINE
  5
A46
330
1F
100
AcDbEntity
  8
0
  6
Continuous
 62
     7
100
AcDbPolyline
 90
        2
 70
     0
 43
0.0
 10
65086.3442
 20
1085.5759
 10
65132.0712
 20
1131.3017
  0
LWPOLYLINE
  5
A4A
330
1F
100
AcDbEntity
  8
0
  6
Continuous
 62
     7
100
AcDbPolyline
 90
        2
 70
     0
 43
0.0
 10
65132.0712
 20
1131.3017
 10
65177.7982
 20
1177.0274
  0
LWPOLYLINE
  5
A4E
330
1F
100
AcDbEntity
  8
0
  6
Continuous
 62
     7
100
AcDbPolyline
 90
        2
 70
     0
 43
0.0
 10
65177.7982
 20
1177.0274
 10
65180.3889
 20
1179.6247
  0
LWPOLYLINE
  5
A52
330
1F
100
AcDbEntity
  8
0
  6
Continuous
 62
     7
100
AcDbPolyline
 90
        2
 70
     0
 43
0.0
 10
65029.4946
 20
982.9996
 10
65072.6229
 20
1026.1282
  0
LWPOLYLINE
  5
A56
330
1F
100
AcDbEntity
  8
0
  6
Continuous
 62
     7
100
AcDbPolyline
 90
        2
 70
     0
 43
0.0
 10
65072.6229
 20
1026.1282
 10
65118.3499
 20
1071.8541
  0
LWPOLYLINE
  5
A5A
330
1F
100
AcDbEntity
  8
0
  6
Continuous
 62
     7
100
AcDbPolyline
 90
        2
 70
     0
 43
0.0
 10
65118.3499
 20
1071.8541
 10
65164.0769
 20
1117.5798
  0
LWPOLYLINE
  5
A5E
330
1F
100
AcDbEntity
  8
0
  6
Continuous
 62
     7
100
AcDbPolyline
 90
        2
 70
     0
 43
0.0
 10
65164.0769
 20
1117.5798
 10
65209.8039
 20
1163.3056
  0
LWPOLYLINE
  5
A62
330
1F
100
AcDbEntity
  8
0
  6
Continuous
 62
     7
100
AcDbPolyline
 90
        2
 70
     0
 43
0.0
 10
65209.8039
 20
1163.3056
 10
65226.12
 20
1179.6247
  0
LWPOLYLINE
  5
A66
330
1F
100
AcDbEntity
  8
0
  6
Continuous
 62
     7
100
AcDbPolyline
 90
        2
 70
     0
 43
0.0
 10
65075.2176
 20
982.9997
 10
65104.6245
 20
1012.4063
  0
LWPOLYLINE
  5
A6A
330
1F
100
AcDbEntity
  8
0
  6
Continuous
 62
     7
100
AcDbPolyline
 90
        2
 70
     0
 43
0.0
 10
65104.6245
 20
1012.4063
 10
65150.3515
 20
1058.132
  0
LWPOLYLINE
  5
A6E
330
1F
100
AcDbEntity
  8
0
  6
Continuous
 62
     7
100
AcDbPolyline
 90
        2
 70
     0
 43
0.0
 10
65150.3515
 20
1058.132
 10
65196.0785
 20
1103.8576
  0
LWPOLYLINE
  5
A72
330
1F
100
AcDbEntity
  8
0
  6
Continuous
 62
     7
100
AcDbPolyline
 90
        2
 70
     0
 43
0.0
 10
65196.0785
 20
1103.8576
 10
65241.8056
 20
1149.5832
  0
LWPOLYLINE
  5
A76
330
1F
100
AcDbEntity
  8
0
  6
Continuous
 62
     7
100
AcDbPolyline
 90
        2
 70
     0
 43
0.0
 10
65241.8056
 20
1149.5832
 10
65253.7163
 20
1161.4968
  0
LWPOLYLINE
  5
A7A
330
1F
100
AcDbEntity
  8
0
  6
Continuous
 62
     7
100
AcDbPolyline
 90
        2
 70
     0
 43
0.0
 10
65120.9406
 20
982.9997
 10
65154.7529
 20
1016.8116
  0
LWPOLYLINE
  5
A7E
330
1F
100
AcDbEntity
  8
0
  6
Continuous
 62
     7
100
AcDbPolyline
 90
        2
 70
     0
 43
0.0
 10
65154.7529
 20
1016.8116
 10
65200.4799
 20
1062.537
  0
LWPOLYLINE
  5
A82
330
1F
100
AcDbEntity
  8
0
  6
Continuous
 62
     7
100
AcDbPolyline
 90
        2
 70
     0
 43
0.0
 10
65200.4799
 20
1062.537
 10
65246.2069
 20
1108.2623
  0
LWPOLYLINE
  5
A86
330
1F
100
AcDbEntity
  8
0
  6
Continuous
 62
     7
100
AcDbPolyline
 90
        2
 70
     0
 43
0.0
 10
65246.2069
 20
1108.2623
 10
65254.4074
 20
1116.4636
  0
LWPOLYLINE
  5
A8A
330
1F
100
AcDbEntity
  8
0
  6
Continuous
 62
     7
100
AcDbPolyline
 90
        2
 70
     0
 43
0.0
 10
65166.6716
 20
982.9997
 10
65204.1982
 20
1020.5237
  0
LWPOLYLINE
  5
A8E
330
1F
100
AcDbEntity
  8
0
  6
Continuous
 62
     7
100
AcDbPolyline
 90
        2
 70
     0
 43
0.0
 10
65204.1982
 20
1020.5237
 10
65249.9252
 20
1066.2489
  0
LWPOLYLINE
  5
A92
330
1F
100
AcDbEntity
  8
0
  6
Continuous
 62
     7
100
AcDbPolyline
 90
        2
 70
     0
 43
0.0
 10
65249.9252
 20
1066.2489
 10
65255.0985
 20
1071.4243
  0
LWPOLYLINE
  5
A96
330
1F
100
AcDbEntity
  8
0
  6
Continuous
 62
     7
100
AcDbPolyline
 90
        2
 70
     0
 43
0.0
 10
65212.4027
 20
982.9998
 10
65252.9524
 20
1023.5513
  0
LWPOLYLINE
  5
A9A
330
1F
100
AcDbEntity
  8
0
  6
Continuous
 62
     7
100
AcDbPolyline
 90
        2
 70
     0
 43
0.0
 10
65252.9524
 20
1023.5513
 10
65255.7856
 20
1026.3849
  0
TEXT
  5
A9E
330
1F
100
AcDbEntity
  8
LAYER4
 62
     7
100
AcDbText
 10
64482.4597
 20
1471.6251
 30
0.0
 40
50.0
  1
Control joint through bond beam 
 41
0.6506895629484687
 72
     5
 11
65479.9668
 21
1471.6251
 31
0.0
100
AcDbText
  0
LWPOLYLINE
  5
A9F
330
1F
100
AcDbEntity
  8
LAYER4
  6
DASHED
 62
     7
100
AcDbPolyline
 90
        3
 70
     0
 43
20.0
 10
63928.4651
 20
1069.6251
 10
64334.4551
 20
1069.6231
 10
64334.4551
 20
1069.6231
  0
TEXT
  5
AA4
330
1F
100
AcDbEntity
  8
LAYER4
 62
     7
100
AcDbText
 10
64486.469
 20
1390.6248
 30
0.0
 40
50.0
  1
20 mm dia dowel with
 41
0.7570621744054357
 72
     5
 11
65154.9549
 21
1390.6248
 31
0.0
100
AcDbText
  0
TEXT
  5
AA5
330
1F
100
AcDbEntity
  8
LAYER4
 62
     7
100
AcDbText
 10
64486.469
 20
1315.6251
 30
0.0
 40
50.0002
  1
bond-breaker and
 41
0.6968395866046433
 72
     5
 11
65032.445
 21
1315.6251
 31
0.0
100
AcDbText
  0
TEXT
  5
AA6
330
1F
100
AcDbEntity
  8
LAYER4
 62
     7
100
AcDbText
 10
64486.469
 20
1240.6245
 30
0.0
 40
50.0
  1
plastic cap one end
 41
0.6799918857142911
 72
     5
 11
65081.4619
 21
1240.6245
 31
0.0
100
AcDbText
  0
LWPOLYLINE
  5
AA7
330
1F
100
AcDbEntity
  8
LAYER4
  6
Continuous
 62
     7
100
AcDbPolyline
 90
        3
 70
     0
 43
0.0
 10
64464.4502
 20
1496.6247
 10
64366.4487
 20
1496.6247
 10
64161.4571
 20
1077.6225
  0
LWPOLYLINE
  5
AAC
330
1F
100
AcDbEntity
  8
LAYER4
  6
Continuous
 62
     7
100
AcDbPolyline
 90
        4
 70
     0
 43
0.0
 10
64192.2059
 20
1117.8683
 10
64161.4571
 20
1077.6225
 10
64174.3621
 20
1126.5983
 10
64192.2059
 20
1117.8683
  0
TEXT
  5
AB2
330
1F
100
AcDbEntity
  8
LAYER4
 62
     7
100
AcDbText
 10
62927.4661
 20
1299.6243
 30
0.0
 40
50.0002
  1
Reinforced bond beam
 41
0.7331405411220505
 72
     5
 11
63623.9524
 21
1299.6243
 31
0.0
100
AcDbText
  0
LWPOLYLINE
  5
AB3
330
1F
100
AcDbEntity
  8
LAYER4
  6
Continuous
 62
     7
100
AcDbPolyline
 90
        4
 70
     0
 43
0.0
 10
63751.4578
 20
-207.3773
 10
64123.4658
 20
-207.376
 10
64123.4658
 20
-17.3763
 10
63751.4578
 20
-17.3777
  0
LWPOLYLINE
  5
AB9
330
1F
100
AcDbEntity
  8
LAYER4
  6
Continuous
 62
     7
100
AcDbPolyline
 90
        2
 70
     0
 43
0.0
 10
63751.4578
 20
-172.3762
 10
64123.4658
 20
-172.3749
  0
LWPOLYLINE
  5
ABD
330
1F
100
AcDbEntity
  8
LAYER4
  6
Continuous
 62
     7
100
AcDbPolyline
 90
        2
 70
     0
 43
0.0
 10
63751.4578
 20
-52.3762
 10
64123.4658
 20
-52.3748
  0
LWPOLYLINE
  5
AC1
330
1F
100
AcDbEntity
  8
LAYER4
  6
Continuous
 62
     7
100
AcDbPolyline
 90
        3
 70
     0
 43
0.0
 10
64138.4683
 20
-17.3768
 10
64138.4683
 20
-207.3765
 10
64508.4555
 20
-207.3778
  0
LWPOLYLINE
  5
AC6
330
1F
100
AcDbEntity
  8
LAYER4
  6
Continuous
 62
     7
100
AcDbPolyline
 90
        2
 70
     0
 43
0.0
 10
64508.4555
 20
-17.3782
 10
64138.4683
 20
-17.3768
  0
LWPOLYLINE
  5
ACA
330
1F
100
AcDbEntity
  8
LAYER4
  6
Continuous
 62
     7
100
AcDbPolyline
 90
        2
 70
     0
 43
0.0
 10
64138.4683
 20
-172.3749
 10
64508.4555
 20
-172.3762
  0
LWPOLYLINE
  5
ACE
330
1F
100
AcDbEntity
  8
LAYER4
  6
Continuous
 62
     7
100
AcDbPolyline
 90
        2
 70
     0
 43
0.0
 10
64138.4683
 20
-52.3748
 10
64508.4555
 20
-52.3762
  0
LWPOLYLINE
  5
AD2
330
1F
100
AcDbEntity
  8
LAYER4
  6
Continuous
 62
     7
100
AcDbPolyline
 90
        5
 70
     0
 43
3.0
 10
64123.4658
 20
-194.3775
 10
64127.2083
 20
-192.6903
 10
64130.9549
 20
-192.1281
 10
64134.7096
 20
-192.6906
 10
64138.4683
 20
-194.3775
  0
LWPOLYLINE
  5
AD9
330
1F
100
AcDbEntity
  8
LAYER4
  6
Continuous
 62
     7
100
AcDbPolyline
 90
        5
 70
     0
 43
3.0
 10
64123.6921
 20
-190.1258
 10
64127.4508
 20
-188.4383
 10
64131.2055
 20
-187.8758
 10
64134.9562
 20
-188.4383
 10
64138.6947
 20
-190.1258
  0
LWPOLYLINE
  5
AE0
330
1F
100
AcDbEntity
  8
LAYER4
  6
Continuous
 62
     7
100
AcDbPolyline
 90
        5
 70
     0
 43
3.0
 10
64123.6921
 20
-192.1258
 10
64127.4508
 20
-190.4384
 10
64131.2055
 20
-189.8759
 10
64134.9562
 20
-190.4384
 10
64138.6947
 20
-192.1258
  0
LWPOLYLINE
  5
AE7
330
1F
100
AcDbEntity
  8
LAYER4
  6
Continuous
 62
     7
100
AcDbPolyline
 90
        5
 70
     0
 43
3.0
 10
64123.6921
 20
-196.1255
 10
64127.4508
 20
-194.4381
 10
64131.2055
 20
-193.8756
 10
64134.9562
 20
-194.4381
 10
64138.6947
 20
-196.1255
  0
LWPOLYLINE
  5
AEE
330
1F
100
AcDbEntity
  8
LAYER4
  6
Continuous
 62
     7
100
AcDbPolyline
 90
        5
 70
     0
 43
3.0
 10
64123.6921
 20
-198.1261
 10
64127.4508
 20
-196.4387
 10
64131.2055
 20
-195.8762
 10
64134.9562
 20
-196.4387
 10
64138.6947
 20
-198.1261
  0
LWPOLYLINE
  5
AF5
330
1F
100
AcDbEntity
  8
LAYER4
  6
Continuous
 62
     7
100
AcDbPolyline
 90
        5
 70
     0
 43
3.0
 10
64123.6921
 20
-200.1253
 10
64127.4508
 20
-198.4378
 10
64131.2055
 20
-197.8753
 10
64134.9562
 20
-198.4378
 10
64138.6947
 20
-200.1253
  0
LWPOLYLINE
  5
AFC
330
1F
100
AcDbEntity
  8
LAYER4
  6
Continuous
 62
     7
100
AcDbPolyline
 90
        5
 70
     0
 43
3.0
 10
64123.6921
 20
-202.1259
 10
64127.4508
 20
-200.4385
 10
64131.2055
 20
-199.876
 10
64134.9562
 20
-200.4385
 10
64138.6947
 20
-202.1259
  0
LWPOLYLINE
  5
B03
330
1F
100
AcDbEntity
  8
LAYER4
  6
Continuous
 62
     7
100
AcDbPolyline
 90
        2
 70
     0
 43
0.0
 10
64124.0559
 20
-66.7931
 10
64138.4683
 20
-52.378
  0
LWPOLYLINE
  5
B07
330
1F
100
AcDbEntity
  8
LAYER4
  6
Continuous
 62
     7
100
AcDbPolyline
 90
        2
 70
     0
 43
0.0
 10
64123.7932
 20
-45.0999
 10
64138.4683
 20
-30.4229
  0
LWPOLYLINE
  5
B0B
330
1F
100
AcDbEntity
  8
LAYER4
  6
Continuous
 62
     7
100
AcDbPolyline
 90
        2
 70
     0
 43
0.0
 10
64123.5305
 20
-23.4178
 10
64128.5704
 20
-18.3761
  0
LWPOLYLINE
  5
B0F
330
1F
100
AcDbEntity
  8
LAYER4
  6
Continuous
 62
     7
100
AcDbPolyline
 90
        2
 70
     0
 43
0.0
 10
64124.3145
 20
-88.4752
 10
64138.4683
 20
-74.322
  0
LWPOLYLINE
  5
B13
330
1F
100
AcDbEntity
  8
LAYER4
  6
Continuous
 62
     7
100
AcDbPolyline
 90
        2
 70
     0
 43
0.0
 10
64134.6045
 20
-100.1309
 10
64138.4683
 20
-96.266
  0
LWPOLYLINE
  5
B17
330
1F
100
AcDbEntity
  8
LAYER4
  6
Continuous
 62
     7
100
AcDbPolyline
 90
        2
 70
     0
 43
0.0
 10
64125.4785
 20
-54.3906
 10
64126.8486
 20
-53.0188
  0
LWPOLYLINE
  5
B1B
330
1F
100
AcDbEntity
  8
LAYER4
  6
Continuous
 62
     7
100
AcDbPolyline
 90
        2
 70
     0
 43
0.0
 10
64128.2188
 20
-29.6944
 10
64129.5889
 20
-28.3226
  0
LWPOLYLINE
  5
B1F
330
1F
100
AcDbEntity
  8
LAYER4
  6
Continuous
 62
     7
100
AcDbPolyline
 90
        2
 70
     0
 43
0.0
 10
64136.4516
 20
-65.3631
 10
64137.8217
 20
-63.9913
  0
LWPOLYLINE
  5
B23
330
1F
100
AcDbEntity
  8
LAYER4
  6
Continuous
 62
     7
100
AcDbPolyline
 90
        2
 70
     0
 43
0.0
 10
64133.7073
 20
-90.0537
 10
64135.0774
 20
-88.6818
  0
LWPOLYLINE
  5
B27
330
1F
100
AcDbEntity
  8
LAYER4
  6
Continuous
 62
     7
100
AcDbPolyline
 90
        2
 70
     0
 43
20.0
 10
64124.2418
 20
-111.3756
 10
64333.8893
 20
-111.3756
  0
LWPOLYLINE
  5
B2B
330
1F
100
AcDbEntity
  8
LAYER4
  6
Continuous
 62
     7
100
AcDbPolyline
 90
        3
 70
     0
 43
4.0
 10
64305.4686
 20
-126.3761
 10
64305.4686
 20
-126.3761
 10
64305.4686
 20
-126.3761
  0
LWPOLYLINE
  5
B30
330
1F
100
AcDbEntity
  8
LAYER4
  6
Continuous
 62
     7
100
AcDbPolyline
 90
        2
 70
     0
 43
4.0
 10
64305.4686
 20
-126.3761
 10
64334.4551
 20
-126.3774
  0
ARC
  5
B34
330
1F
100
AcDbEntity
  8
LAYER4
  6
Continuous
 62
     7
100
AcDbCircle
 10
64334.457
 20
-122.3772
 30
0.0
 40
4.0002
100
AcDbArc
 50
270.0
 51
0.019
  0
LWPOLYLINE
  5
B35
330
1F
100
AcDbEntity
  8
LAYER4
  6
Continuous
 62
     7
100
AcDbPolyline
 90
        2
 70
     0
 43
4.0
 10
64338.4483
 20
-122.3759
 10
64338.4483
 20
-100.3763
  0
ARC
  5
B39
330
1F
100
AcDbEntity
  8
LAYER4
  6
Continuous
 62
     7
100
AcDbCircle
 10
64334.457
 20
-100.3776
 30
0.0
 40
3.9922
100
AcDbArc
 50
0.0191
 51
90.0
  0
LWPOLYLINE
  5
B3A
330
1F
100
AcDbEntity
  8
LAYER4
  6
Continuous
 62
     7
100
AcDbPolyline
 90
        2
 70
     0
 43
4.0
 10
64334.4551
 20
-96.3774
 10
64305.4686
 20
-96.3761
  0
LWPOLYLINE
  5
B3E
330
1F
100
AcDbEntity
  8
LAYER4
  6
Continuous
 62
     7
100
AcDbPolyline
 90
        5
 70
     0
 43
3.0
 10
63911.4579
 20
-101.3784
 10
64123.4658
 20
-101.3771
 10
64123.4658
 20
-121.3771
 10
63912.4603
 20
-121.3771
 10
63912.4603
 20
-102.3769
  0
LWPOLYLINE
  5
B45
330
1F
100
AcDbEntity
  8
LAYER4
  6
Continuous
 62
     7
100
AcDbPolyline
 90
        2
 70
     0
 43
0.0
 10
64124.064
 20
-163.2769
 10
64138.4683
 20
-148.8734
  0
LWPOLYLINE
  5
B49
330
1F
100
AcDbEntity
  8
LAYER4
  6
Continuous
 62
     7
100
AcDbPolyline
 90
        2
 70
     0
 43
0.0
 10
64123.7002
 20
-138.0317
 10
64138.4683
 20
-123.2666
  0
LWPOLYLINE
  5
B4D
330
1F
100
AcDbEntity
  8
LAYER4
  6
Continuous
 62
     7
100
AcDbPolyline
 90
        2
 70
     0
 43
0.0
 10
64124.4237
 20
-188.5222
 10
64138.4683
 20
-174.4802
  0
LWPOLYLINE
  5
B51
330
1F
100
AcDbEntity
  8
LAYER4
  6
Continuous
 62
     7
100
AcDbPolyline
 90
        2
 70
     0
 43
0.0
 10
64124.5651
 20
-149.9736
 10
64126.1656
 20
-148.3733
  0
LWPOLYLINE
  5
B55
330
1F
100
AcDbEntity
  8
LAYER4
  6
Continuous
 62
     7
100
AcDbPolyline
 90
        2
 70
     0
 43
0.0
 10
64137.369
 20
-162.7776
 10
64138.4683
 20
-161.6791
  0
LWPOLYLINE
  5
B59
330
1F
100
AcDbEntity
  8
LAYER4
  6
Continuous
 62
     7
100
AcDbPolyline
 90
        2
 70
     0
 43
0.0
 10
64135.3805
 20
-190.3706
 10
64135.7685
 20
-189.9829
  0
TEXT
  5
B5D
330
1F
100
AcDbEntity
  8
LAYER4
 62
     7
100
AcDbText
 10
64279.4566
 20
-323.377
 30
0.0
 40
50.0
  1
Sealant
 50
0.0002728329114683
 41
0.7487957860700742
 72
     5
 11
64510.4601
 21
-323.3759
 31
0.0
100
AcDbText
  0
TEXT
  5
B5E
330
1F
100
AcDbEntity
  8
LAYER4
 62
     7
100
AcDbText
 10
63395.4547
 20
142.6229
 30
0.0
 40
50.0
  1
Bitumen impregnated
 41
0.7472611656087689
 72
     5
 11
64042.9565
 21
142.6229
 31
0.0
100
AcDbText
  0
TEXT
  5
B5F
330
1F
100
AcDbEntity
  8
LAYER4
 62
     7
100
AcDbText
 10
63395.4547
 20
67.6228
 30
0.0
 40
50.0
  1
filler board
 50
0.0002640383649412
 41
0.6509938000069091
 72
     5
 11
63720.9516
 21
67.6243
 31
0.0
100
AcDbText
  0
TEXT
  5
B60
330
1F
100
AcDbEntity
  8
LAYER4
 62
     7
100
AcDbText
 10
64317.4641
 20
207.624
 30
0.0
 40
50.0
  1
20 dia dowel with 
 41
0.696040400250161
 72
     5
 11
64873.9484
 21
207.624
 31
0.0
100
AcDbText
  0
TEXT
  5
B61
330
1F
100
AcDbEntity
  8
LAYER4
 62
     7
100
AcDbText
 10
64317.4641
 20
132.6238
 30
0.0
 40
50.0
  1
bond-breaker and
 50
359.9998530856461
 41
0.696863050417097
 72
     5
 11
64863.4563
 21
132.6224
 31
0.0
100
AcDbText
  0
TEXT
  5
B62
330
1F
100
AcDbEntity
  8
LAYER4
 62
     7
100
AcDbText
 10
64317.4641
 20
57.6238
 30
0.0
 40
50.0
  1
plastic cap one end
 50
359.9998651847924
 41
0.6799918857161735
 72
     5
 11
64912.457
 21
57.6224
 31
0.0
100
AcDbText
  0
LWPOLYLINE
  5
B63
330
1F
100
AcDbEntity
  8
LAYER4
  6
Continuous
 62
     7
100
AcDbPolyline
 90
        3
 70
     0
 43
0.0
 10
64293.4568
 20
233.6228
 10
64229.5021
 20
233.6238
 10
64178.335
 20
-105.3758
  0
LWPOLYLINE
  5
B68
330
1F
100
AcDbEntity
  8
LAYER4
  6
Continuous
 62
     7
100
AcDbPolyline
 90
        4
 70
     0
 43
0.0
 10
64195.5685
 20
-57.7508
 10
64178.335
 20
-105.3758
 10
64175.9262
 20
-54.786
 10
64195.5685
 20
-57.7508
  0
LWPOLYLINE
  5
B6E
330
1F
100
AcDbEntity
  8
LAYER4
  6
Continuous
 62
     7
100
AcDbPolyline
 90
        3
 70
     0
 43
0.0
 10
63760.4626
 20
92.6243
 10
63933.4444
 20
92.6238
 10
64125.4543
 20
-18.3769
  0
LWPOLYLINE
  5
B73
330
1F
100
AcDbEntity
  8
LAYER4
  6
Continuous
 62
     7
100
AcDbPolyline
 90
        4
 70
     0
 43
0.0
 10
64087.4306
 20
15.0782
 10
64125.4543
 20
-18.3769
 10
64077.4882
 20
-2.1202
 10
64087.4306
 20
15.0782
  0
LWPOLYLINE
  5
B79
330
1F
100
AcDbEntity
  8
LAYER4
  6
Continuous
 62
     7
100
AcDbPolyline
 90
        3
 70
     0
 43
0.0
 10
64264.4541
 20
-294.3768
 10
64186.4506
 20
-294.3757
 10
64131.4521
 20
-204.3761
  0
LWPOLYLINE
  5
B7E
330
1F
100
AcDbEntity
  8
LAYER4
  6
Continuous
 62
     7
100
AcDbPolyline
 90
        4
 70
     0
 43
0.0
 10
64148.8715
 20
-251.9327
 10
64131.4521
 20
-204.3761
 10
64165.8261
 20
-241.5741
 10
64148.8715
 20
-251.9327
  0
TEXT
  5
B84
330
1F
100
AcDbEntity
  8
LAYER4
 62
     7
100
AcDbText
 10
64037.4599
 20
-448.376
 30
0.0
 40
50.0
  1
Section
 50
359.9997229597382
 41
0.7583176666755148
 72
     5
 11
64264.9552
 21
-448.3771
 31
0.0
100
AcDbText
  0
LWPOLYLINE
  5
B85
330
1F
100
AcDbEntity
  8
LAYER4
  6
Continuous
 62
     7
100
AcDbPolyline
 90
        2
 70
     0
 43
0.0
 10
63758.1265
 20
-113.3763
 10
63759.7432
 20
-113.3763
  0
LWPOLYLINE
  5
B89
330
1F
100
AcDbEntity
  8
LAYER4
  6
Continuous
 62
     7
100
AcDbPolyline
 90
        2
 70
     0
 43
0.0
 10
63774.293
 20
-113.3763
 10
63775.9097
 20
-113.3763
  0
LWPOLYLINE
  5
B8D
330
1F
100
AcDbEntity
  8
LAYER4
  6
Continuous
 62
     7
100
AcDbPolyline
 90
        2
 70
     0
 43
0.0
 10
63790.4596
 20
-113.3763
 10
63792.0762
 20
-113.3763
  0
LWPOLYLINE
  5
B91
330
1F
100
AcDbEntity
  8
LAYER4
  6
Continuous
 62
     7
100
AcDbPolyline
 90
        2
 70
     0
 43
0.0
 10
63806.6261
 20
-113.3763
 10
63808.2428
 20
-113.3763
  0
LWPOLYLINE
  5
B95
330
1F
100
AcDbEntity
  8
LAYER4
  6
Continuous
 62
     7
100
AcDbPolyline
 90
        2
 70
     0
 43
0.0
 10
63822.7926
 20
-113.3763
 10
63824.4093
 20
-113.3763
  0
LWPOLYLINE
  5
B99
330
1F
100
AcDbEntity
  8
LAYER4
  6
Continuous
 62
     7
100
AcDbPolyline
 90
        2
 70
     0
 43
0.0
 10
63838.9592
 20
-113.3763
 10
63840.5758
 20
-113.3763
  0
LWPOLYLINE
  5
B9D
330
1F
100
AcDbEntity
  8
LAYER4
  6
Continuous
 62
     7
100
AcDbPolyline
 90
        2
 70
     0
 43
0.0
 10
63855.1257
 20
-113.3763
 10
63856.7423
 20
-113.3763
  0
LWPOLYLINE
  5
BA1
330
1F
100
AcDbEntity
  8
LAYER4
  6
Continuous
 62
     7
100
AcDbPolyline
 90
        2
 70
     0
 43
0.0
 10
63871.2922
 20
-113.3763
 10
63872.9089
 20
-113.3763
  0
LWPOLYLINE
  5
BA5
330
1F
100
AcDbEntity
  8
LAYER4
  6
Continuous
 62
     7
100
AcDbPolyline
 90
        2
 70
     0
 43
0.0
 10
63887.4587
 20
-113.3763
 10
63889.0754
 20
-113.3763
  0
LWPOLYLINE
  5
BA9
330
1F
100
AcDbEntity
  8
LAYER4
  6
Continuous
 62
     7
100
AcDbPolyline
 90
        2
 70
     0
 43
0.0
 10
63903.6253
 20
-113.3763
 10
63905.2419
 20
-113.3763
  0
LWPOLYLINE
  5
BAD
330
1F
100
AcDbEntity
  8
LAYER4
  6
Continuous
 62
     7
100
AcDbPolyline
 90
        2
 70
     0
 43
0.0
 10
63751.0254
 20
-105.293
 10
63751.6599
 20
-105.293
  0
LWPOLYLINE
  5
BB1
330
1F
100
AcDbEntity
  8
LAYER4
  6
Continuous
 62
     7
100
AcDbPolyline
 90
        2
 70
     0
 43
0.0
 10
63766.2098
 20
-105.293
 10
63767.8264
 20
-105.293
  0
LWPOLYLINE
  5
BB5
330
1F
100
AcDbEntity
  8
LAYER4
  6
Continuous
 62
     7
100
AcDbPolyline
 90
        2
 70
     0
 43
0.0
 10
63782.3763
 20
-105.293
 10
63783.993
 20
-105.293
  0
LWPOLYLINE
  5
BB9
330
1F
100
AcDbEntity
  8
LAYER4
  6
Continuous
 62
     7
100
AcDbPolyline
 90
        2
 70
     0
 43
0.0
 10
63798.5428
 20
-105.293
 10
63800.1595
 20
-105.293
  0
LWPOLYLINE
  5
BBD
330
1F
100
AcDbEntity
  8
LAYER4
  6
Continuous
 62
     7
100
AcDbPolyline
 90
        2
 70
     0
 43
0.0
 10
63814.7094
 20
-105.293
 10
63816.326
 20
-105.293
  0
LWPOLYLINE
  5
BC1
330
1F
100
AcDbEntity
  8
LAYER4
  6
Continuous
 62
     7
100
AcDbPolyline
 90
        2
 70
     0
 43
0.0
 10
63830.8759
 20
-105.293
 10
63832.4925
 20
-105.293
  0
LWPOLYLINE
  5
BC5
330
1F
100
AcDbEntity
  8
LAYER4
  6
Continuous
 62
     7
100
AcDbPolyline
 90
        2
 70
     0
 43
0.0
 10
63847.0424
 20
-105.293
 10
63848.6591
 20
-105.293
  0
LWPOLYLINE
  5
BC9
330
1F
100
AcDbEntity
  8
LAYER4
  6
Continuous
 62
     7
100
AcDbPolyline
 90
        2
 70
     0
 43
0.0
 10
63863.2089
 20
-105.293
 10
63864.8256
 20
-105.293
  0
LWPOLYLINE
  5
BCD
330
1F
100
AcDbEntity
  8
LAYER4
  6
Continuous
 62
     7
100
AcDbPolyline
 90
        2
 70
     0
 43
0.0
 10
63879.3755
 20
-105.293
 10
63880.9921
 20
-105.293
  0
LWPOLYLINE
  5
BD1
330
1F
100
AcDbEntity
  8
LAYER4
  6
Continuous
 62
     7
100
AcDbPolyline
 90
        2
 70
     0
 43
0.0
 10
63895.542
 20
-105.293
 10
63897.1587
 20
-105.293
  0
LWPOLYLINE
  5
BD5
330
1F
100
AcDbEntity
  8
LAYER4
  6
Continuous
 62
     7
100
AcDbPolyline
 90
        2
 70
     0
 43
0.0
 10
63758.1265
 20
-97.2098
 10
63759.7432
 20
-97.2098
  0
LWPOLYLINE
  5
BD9
330
1F
100
AcDbEntity
  8
LAYER4
  6
Continuous
 62
     7
100
AcDbPolyline
 90
        2
 70
     0
 43
0.0
 10
63774.293
 20
-97.2098
 10
63775.9097
 20
-97.2098
  0
LWPOLYLINE
  5
BDD
330
1F
100
AcDbEntity
  8
LAYER4
  6
Continuous
 62
     7
100
AcDbPolyline
 90
        2
 70
     0
 43
0.0
 10
63790.4596
 20
-97.2098
 10
63792.0762
 20
-97.2098
  0
LWPOLYLINE
  5
BE1
330
1F
100
AcDbEntity
  8
LAYER4
  6
Continuous
 62
     7
100
AcDbPolyline
 90
        2
 70
     0
 43
0.0
 10
63806.6261
 20
-97.2098
 10
63808.2428
 20
-97.2098
  0
LWPOLYLINE
  5
BE5
330
1F
100
AcDbEntity
  8
LAYER4
  6
Continuous
 62
     7
100
AcDbPolyline
 90
        2
 70
     0
 43
0.0
 10
63822.7926
 20
-97.2098
 10
63824.4093
 20
-97.2098
  0
LWPOLYLINE
  5
BE9
330
1F
100
AcDbEntity
  8
LAYER4
  6
Continuous
 62
     7
100
AcDbPolyline
 90
        2
 70
     0
 43
0.0
 10
63838.9592
 20
-97.2098
 10
63840.5758
 20
-97.2098
  0
LWPOLYLINE
  5
BED
330
1F
100
AcDbEntity
  8
LAYER4
  6
Continuous
 62
     7
100
AcDbPolyline
 90
        2
 70
     0
 43
0.0
 10
63855.1257
 20
-97.2098
 10
63856.7423
 20
-97.2098
  0
LWPOLYLINE
  5
BF1
330
1F
100
AcDbEntity
  8
LAYER4
  6
Continuous
 62
     7
100
AcDbPolyline
 90
        2
 70
     0
 43
0.0
 10
63871.2922
 20
-97.2098
 10
63872.9089
 20
-97.2098
  0
LWPOLYLINE
  5
BF5
330
1F
100
AcDbEntity
  8
LAYER4
  6
Continuous
 62
     7
100
AcDbPolyline
 90
        2
 70
     0
 43
0.0
 10
63887.4587
 20
-97.2098
 10
63889.0754
 20
-97.2098
  0
LWPOLYLINE
  5
BF9
330
1F
100
AcDbEntity
  8
LAYER4
  6
Continuous
 62
     7
100
AcDbPolyline
 90
        2
 70
     0
 43
0.0
 10
63903.6253
 20
-97.2098
 10
63905.2419
 20
-97.2098
  0
LWPOLYLINE
  5
BFD
330
1F
100
AcDbEntity
  8
LAYER4
  6
Continuous
 62
     7
100
AcDbPolyline
 90
        2
 70
     0
 43
0.0
 10
63919.7918
 20
-97.2098
 10
63921.4084
 20
-97.2098
  0
LWPOLYLINE
  5
C01
330
1F
100
AcDbEntity
  8
LAYER4
  6
Continuous
 62
     7
100
AcDbPolyline
 90
        2
 70
     0
 43
0.0
 10
63935.9583
 20
-97.2098
 10
63937.575
 20
-97.2098
  0
LWPOLYLINE
  5
C05
330
1F
100
AcDbEntity
  8
LAYER4
  6
Continuous
 62
     7
100
AcDbPolyline
 90
        2
 70
     0
 43
0.0
 10
63952.1248
 20
-97.2098
 10
63953.7415
 20
-97.2098
  0
LWPOLYLINE
  5
C09
330
1F
100
AcDbEntity
  8
LAYER4
  6
Continuous
 62
     7
100
AcDbPolyline
 90
        2
 70
     0
 43
0.0
 10
63968.2914
 20
-97.2098
 10
63969.908
 20
-97.2098
  0
LWPOLYLINE
  5
C0D
330
1F
100
AcDbEntity
  8
LAYER4
  6
Continuous
 62
     7
100
AcDbPolyline
 90
        2
 70
     0
 43
0.0
 10
63984.4579
 20
-97.2098
 10
63986.0746
 20
-97.2098
  0
LWPOLYLINE
  5
C11
330
1F
100
AcDbEntity
  8
LAYER4
  6
Continuous
 62
     7
100
AcDbPolyline
 90
        2
 70
     0
 43
0.0
 10
64000.6244
 20
-97.2098
 10
64002.2411
 20
-97.2098
  0
LWPOLYLINE
  5
C15
330
1F
100
AcDbEntity
  8
LAYER4
  6
Continuous
 62
     7
100
AcDbPolyline
 90
        2
 70
     0
 43
0.0
 10
64016.791
 20
-97.2098
 10
64018.4076
 20
-97.2098
  0
LWPOLYLINE
  5
C19
330
1F
100
AcDbEntity
  8
LAYER4
  6
Continuous
 62
     7
100
AcDbPolyline
 90
        2
 70
     0
 43
0.0
 10
64032.9575
 20
-97.2098
 10
64034.5741
 20
-97.2098
  0
LWPOLYLINE
  5
C1D
330
1F
100
AcDbEntity
  8
LAYER4
  6
Continuous
 62
     7
100
AcDbPolyline
 90
        2
 70
     0
 43
0.0
 10
64049.124
 20
-97.2098
 10
64050.7407
 20
-97.2098
  0
LWPOLYLINE
  5
C21
330
1F
100
AcDbEntity
  8
LAYER4
  6
Continuous
 62
     7
100
AcDbPolyline
 90
        2
 70
     0
 43
0.0
 10
64065.2905
 20
-97.2098
 10
64066.9072
 20
-97.2098
  0
LWPOLYLINE
  5
C25
330
1F
100
AcDbEntity
  8
LAYER4
  6
Continuous
 62
     7
100
AcDbPolyline
 90
        2
 70
     0
 43
0.0
 10
64081.4571
 20
-97.2098
 10
64083.0737
 20
-97.2098
  0
LWPOLYLINE
  5
C29
330
1F
100
AcDbEntity
  8
LAYER4
  6
Continuous
 62
     7
100
AcDbPolyline
 90
        2
 70
     0
 43
0.0
 10
64097.6236
 20
-97.2098
 10
64099.2403
 20
-97.2098
  0
LWPOLYLINE
  5
C2D
330
1F
100
AcDbEntity
  8
LAYER4
  6
Continuous
 62
     7
100
AcDbPolyline
 90
        2
 70
     0
 43
0.0
 10
64113.7901
 20
-97.2098
 10
64115.4068
 20
-97.2098
  0
LWPOLYLINE
  5
C31
330
1F
100
AcDbEntity
  8
LAYER4
  6
Continuous
 62
     7
100
AcDbPolyline
 90
        2
 70
     0
 43
0.0
 10
63751.1628
 20
-89.1265
 10
63751.6599
 20
-89.1265
  0
LWPOLYLINE
  5
C35
330
1F
100
AcDbEntity
  8
LAYER4
  6
Continuous
 62
     7
100
AcDbPolyline
 90
        2
 70
     0
 43
0.0
 10
63766.2098
 20
-89.1265
 10
63767.8264
 20
-89.1265
  0
LWPOLYLINE
  5
C39
330
1F
100
AcDbEntity
  8
LAYER4
  6
Continuous
 62
     7
100
AcDbPolyline
 90
        2
 70
     0
 43
0.0
 10
63782.3763
 20
-89.1265
 10
63783.993
 20
-89.1265
  0
LWPOLYLINE
  5
C3D
330
1F
100
AcDbEntity
  8
LAYER4
  6
Continuous
 62
     7
100
AcDbPolyline
 90
        2
 70
     0
 43
0.0
 10
63798.5428
 20
-89.1265
 10
63800.1595
 20
-89.1265
  0
LWPOLYLINE
  5
C41
330
1F
100
AcDbEntity
  8
LAYER4
  6
Continuous
 62
     7
100
AcDbPolyline
 90
        2
 70
     0
 43
0.0
 10
63814.7094
 20
-89.1265
 10
63816.326
 20
-89.1265
  0
LWPOLYLINE
  5
C45
330
1F
100
AcDbEntity
  8
LAYER4
  6
Continuous
 62
     7
100
AcDbPolyline
 90
        2
 70
     0
 43
0.0
 10
63830.8759
 20
-89.1265
 10
63832.4925
 20
-89.1265
  0
LWPOLYLINE
  5
C49
330
1F
100
AcDbEntity
  8
LAYER4
  6
Continuous
 62
     7
100
AcDbPolyline
 90
        2
 70
     0
 43
0.0
 10
63847.0424
 20
-89.1265
 10
63848.6591
 20
-89.1265
  0
LWPOLYLINE
  5
C4D
330
1F
100
AcDbEntity
  8
LAYER4
  6
Continuous
 62
     7
100
AcDbPolyline
 90
        2
 70
     0
 43
0.0
 10
63863.2089
 20
-89.1265
 10
63864.8256
 20
-89.1265
  0
LWPOLYLINE
  5
C51
330
1F
100
AcDbEntity
  8
LAYER4
  6
Continuous
 62
     7
100
AcDbPolyline
 90
        2
 70
     0
 43
0.0
 10
63879.3755
 20
-89.1265
 10
63880.9921
 20
-89.1265
  0
LWPOLYLINE
  5
C55
330
1F
100
AcDbEntity
  8
LAYER4
  6
Continuous
 62
     7
100
AcDbPolyline
 90
        2
 70
     0
 43
0.0
 10
63895.542
 20
-89.1265
 10
63897.1587
 20
-89.1265
  0
LWPOLYLINE
  5
C59
330
1F
100
AcDbEntity
  8
LAYER4
  6
Continuous
 62
     7
100
AcDbPolyline
 90
        2
 70
     0
 43
0.0
 10
63911.7085
 20
-89.1265
 10
63913.3252
 20
-89.1265
  0
LWPOLYLINE
  5
C5D
330
1F
100
AcDbEntity
  8
LAYER4
  6
Continuous
 62
     7
100
AcDbPolyline
 90
        2
 70
     0
 43
0.0
 10
63927.8751
 20
-89.1265
 10
63929.4917
 20
-89.1265
  0
LWPOLYLINE
  5
C61
330
1F
100
AcDbEntity
  8
LAYER4
  6
Continuous
 62
     7
100
AcDbPolyline
 90
        2
 70
     0
 43
0.0
 10
63944.0416
 20
-89.1265
 10
63945.6582
 20
-89.1265
  0
LWPOLYLINE
  5
C65
330
1F
100
AcDbEntity
  8
LAYER4
  6
Continuous
 62
     7
100
AcDbPolyline
 90
        2
 70
     0
 43
0.0
 10
63960.2081
 20
-89.1265
 10
63961.8248
 20
-89.1265
  0
LWPOLYLINE
  5
C69
330
1F
100
AcDbEntity
  8
LAYER4
  6
Continuous
 62
     7
100
AcDbPolyline
 90
        2
 70
     0
 43
0.0
 10
63976.3746
 20
-89.1265
 10
63977.9913
 20
-89.1265
  0
LWPOLYLINE
  5
C6D
330
1F
100
AcDbEntity
  8
LAYER4
  6
Continuous
 62
     7
100
AcDbPolyline
 90
        2
 70
     0
 43
0.0
 10
63992.5412
 20
-89.1265
 10
63994.1578
 20
-89.1265
  0
LWPOLYLINE
  5
C71
330
1F
100
AcDbEntity
  8
LAYER4
  6
Continuous
 62
     7
100
AcDbPolyline
 90
        2
 70
     0
 43
0.0
 10
64008.7077
 20
-89.1265
 10
64010.3243
 20
-89.1265
  0
LWPOLYLINE
  5
C75
330
1F
100
AcDbEntity
  8
LAYER4
  6
Continuous
 62
     7
100
AcDbPolyline
 90
        2
 70
     0
 43
0.0
 10
64024.8742
 20
-89.1265
 10
64026.4909
 20
-89.1265
  0
LWPOLYLINE
  5
C79
330
1F
100
AcDbEntity
  8
LAYER4
  6
Continuous
 62
     7
100
AcDbPolyline
 90
        2
 70
     0
 43
0.0
 10
64041.0408
 20
-89.1265
 10
64042.6574
 20
-89.1265
  0
LWPOLYLINE
  5
C7D
330
1F
100
AcDbEntity
  8
LAYER4
  6
Continuous
 62
     7
100
AcDbPolyline
 90
        2
 70
     0
 43
0.0
 10
64057.2073
 20
-89.1265
 10
64058.8239
 20
-89.1265
  0
LWPOLYLINE
  5
C81
330
1F
100
AcDbEntity
  8
LAYER4
  6
Continuous
 62
     7
100
AcDbPolyline
 90
        2
 70
     0
 43
0.0
 10
64073.3738
 20
-89.1265
 10
64074.9905
 20
-89.1265
  0
LWPOLYLINE
  5
C85
330
1F
100
AcDbEntity
  8
LAYER4
  6
Continuous
 62
     7
100
AcDbPolyline
 90
        2
 70
     0
 43
0.0
 10
64089.5403
 20
-89.1265
 10
64091.157
 20
-89.1265
  0
LWPOLYLINE
  5
C89
330
1F
100
AcDbEntity
  8
LAYER4
  6
Continuous
 62
     7
100
AcDbPolyline
 90
        2
 70
     0
 43
0.0
 10
64105.7069
 20
-89.1265
 10
64107.3235
 20
-89.1265
  0
LWPOLYLINE
  5
C8D
330
1F
100
AcDbEntity
  8
LAYER4
  6
Continuous
 62
     7
100
AcDbPolyline
 90
        2
 70
     0
 43
0.0
 10
63758.1265
 20
-81.0432
 10
63759.7432
 20
-81.0432
  0
LWPOLYLINE
  5
C91
330
1F
100
AcDbEntity
  8
LAYER4
  6
Continuous
 62
     7
100
AcDbPolyline
 90
        2
 70
     0
 43
0.0
 10
63774.293
 20
-81.0432
 10
63775.9097
 20
-81.0432
  0
LWPOLYLINE
  5
C95
330
1F
100
AcDbEntity
  8
LAYER4
  6
Continuous
 62
     7
100
AcDbPolyline
 90
        2
 70
     0
 43
0.0
 10
63790.4596
 20
-81.0432
 10
63792.0762
 20
-81.0432
  0
LWPOLYLINE
  5
C99
330
1F
100
AcDbEntity
  8
LAYER4
  6
Continuous
 62
     7
100
AcDbPolyline
 90
        2
 70
     0
 43
0.0
 10
63806.6261
 20
-81.0432
 10
63808.2428
 20
-81.0432
  0
LWPOLYLINE
  5
C9D
330
1F
100
AcDbEntity
  8
LAYER4
  6
Continuous
 62
     7
100
AcDbPolyline
 90
        2
 70
     0
 43
0.0
 10
63822.7926
 20
-81.0432
 10
63824.4093
 20
-81.0432
  0
LWPOLYLINE
  5
CA1
330
1F
100
AcDbEntity
  8
LAYER4
  6
Continuous
 62
     7
100
AcDbPolyline
 90
        2
 70
     0
 43
0.0
 10
63838.9592
 20
-81.0432
 10
63840.5758
 20
-81.0432
  0
LWPOLYLINE
  5
CA5
330
1F
100
AcDbEntity
  8
LAYER4
  6
Continuous
 62
     7
100
AcDbPolyline
 90
        2
 70
     0
 43
0.0
 10
63855.1257
 20
-81.0432
 10
63856.7423
 20
-81.0432
  0
LWPOLYLINE
  5
CA9
330
1F
100
AcDbEntity
  8
LAYER4
  6
Continuous
 62
     7
100
AcDbPolyline
 90
        2
 70
     0
 43
0.0
 10
63871.2922
 20
-81.0432
 10
63872.9089
 20
-81.0432
  0
LWPOLYLINE
  5
CAD
330
1F
100
AcDbEntity
  8
LAYER4
  6
Continuous
 62
     7
100
AcDbPolyline
 90
        2
 70
     0
 43
0.0
 10
63887.4587
 20
-81.0432
 10
63889.0754
 20
-81.0432
  0
LWPOLYLINE
  5
CB1
330
1F
100
AcDbEntity
  8
LAYER4
  6
Continuous
 62
     7
100
AcDbPolyline
 90
        2
 70
     0
 43
0.0
 10
63903.6253
 20
-81.0432
 10
63905.2419
 20
-81.0432
  0
LWPOLYLINE
  5
CB5
330
1F
100
AcDbEntity
  8
LAYER4
  6
Continuous
 62
     7
100
AcDbPolyline
 90
        2
 70
     0
 43
0.0
 10
63919.7918
 20
-81.0432
 10
63921.4084
 20
-81.0432
  0
LWPOLYLINE
  5
CB9
330
1F
100
AcDbEntity
  8
LAYER4
  6
Continuous
 62
     7
100
AcDbPolyline
 90
        2
 70
     0
 43
0.0
 10
63935.9583
 20
-81.0432
 10
63937.575
 20
-81.0432
  0
LWPOLYLINE
  5
CBD
330
1F
100
AcDbEntity
  8
LAYER4
  6
Continuous
 62
     7
100
AcDbPolyline
 90
        2
 70
     0
 43
0.0
 10
63952.1248
 20
-81.0432
 10
63953.7415
 20
-81.0432
  0
LWPOLYLINE
  5
CC1
330
1F
100
AcDbEntity
  8
LAYER4
  6
Continuous
 62
     7
100
AcDbPolyline
 90
        2
 70
     0
 43
0.0
 10
63968.2914
 20
-81.0432
 10
63969.908
 20
-81.0432
  0
LWPOLYLINE
  5
CC5
330
1F
100
AcDbEntity
  8
LAYER4
  6
Continuous
 62
     7
100
AcDbPolyline
 90
        2
 70
     0
 43
0.0
 10
63984.4579
 20
-81.0432
 10
63986.0746
 20
-81.0432
  0
LWPOLYLINE
  5
CC9
330
1F
100
AcDbEntity
  8
LAYER4
  6
Continuous
 62
     7
100
AcDbPolyline
 90
        2
 70
     0
 43
0.0
 10
64000.6244
 20
-81.0432
 10
64002.2411
 20
-81.0432
  0
LWPOLYLINE
  5
CCD
330
1F
100
AcDbEntity
  8
LAYER4
  6
Continuous
 62
     7
100
AcDbPolyline
 90
        2
 70
     0
 43
0.0
 10
64016.791
 20
-81.0432
 10
64018.4076
 20
-81.0432
  0
LWPOLYLINE
  5
CD1
330
1F
100
AcDbEntity
  8
LAYER4
  6
Continuous
 62
     7
100
AcDbPolyline
 90
        2
 70
     0
 43
0.0
 10
64032.9575
 20
-81.0432
 10
64034.5741
 20
-81.0432
  0
LWPOLYLINE
  5
CD5
330
1F
100
AcDbEntity
  8
LAYER4
  6
Continuous
 62
     7
100
AcDbPolyline
 90
        2
 70
     0
 43
0.0
 10
64049.124
 20
-81.0432
 10
64050.7407
 20
-81.0432
  0
LWPOLYLINE
  5
CD9
330
1F
100
AcDbEntity
  8
LAYER4
  6
Continuous
 62
     7
100
AcDbPolyline
 90
        2
 70
     0
 43
0.0
 10
64065.2905
 20
-81.0432
 10
64066.9072
 20
-81.0432
  0
LWPOLYLINE
  5
CDD
330
1F
100
AcDbEntity
  8
LAYER4
  6
Continuous
 62
     7
100
AcDbPolyline
 90
        2
 70
     0
 43
0.0
 10
64081.4571
 20
-81.0432
 10
64083.0737
 20
-81.0432
  0
LWPOLYLINE
  5
CE1
330
1F
100
AcDbEntity
  8
LAYER4
  6
Continuous
 62
     7
100
AcDbPolyline
 90
        2
 70
     0
 43
0.0
 10
64097.6236
 20
-81.0432
 10
64099.2403
 20
-81.0432
  0
LWPOLYLINE
  5
CE5
330
1F
100
AcDbEntity
  8
LAYER4
  6
Continuous
 62
     7
100
AcDbPolyline
 90
        2
 70
     0
 43
0.0
 10
64113.7901
 20
-81.0432
 10
64115.4068
 20
-81.0432
  0
LWPOLYLINE
  5
CE9
330
1F
100
AcDbEntity
  8
LAYER4
  6
Continuous
 62
     7
100
AcDbPolyline
 90
        2
 70
     0
 43
0.0
 10
63751.3042
 20
-72.96
 10
63751.6599
 20
-72.96
  0
LWPOLYLINE
  5
CED
330
1F
100
AcDbEntity
  8
LAYER4
  6
Continuous
 62
     7
100
AcDbPolyline
 90
        2
 70
     0
 43
0.0
 10
63766.2098
 20
-72.96
 10
63767.8264
 20
-72.96
  0
LWPOLYLINE
  5
CF1
330
1F
100
AcDbEntity
  8
LAYER4
  6
Continuous
 62
     7
100
AcDbPolyline
 90
        2
 70
     0
 43
0.0
 10
63782.3763
 20
-72.96
 10
63783.993
 20
-72.96
  0
LWPOLYLINE
  5
CF5
330
1F
100
AcDbEntity
  8
LAYER4
  6
Continuous
 62
     7
100
AcDbPolyline
 90
        2
 70
     0
 43
0.0
 10
63798.5428
 20
-72.96
 10
63800.1595
 20
-72.96
  0
LWPOLYLINE
  5
CF9
330
1F
100
AcDbEntity
  8
LAYER4
  6
Continuous
 62
     7
100
AcDbPolyline
 90
        2
 70
     0
 43
0.0
 10
63814.7094
 20
-72.96
 10
63816.326
 20
-72.96
  0
LWPOLYLINE
  5
CFD
330
1F
100
AcDbEntity
  8
LAYER4
  6
Continuous
 62
     7
100
AcDbPolyline
 90
        2
 70
     0
 43
0.0
 10
63830.8759
 20
-72.96
 10
63832.4925
 20
-72.96
  0
LWPOLYLINE
  5
D01
330
1F
100
AcDbEntity
  8
LAYER4
  6
Continuous
 62
     7
100
AcDbPolyline
 90
        2
 70
     0
 43
0.0
 10
63847.0424
 20
-72.96
 10
63848.6591
 20
-72.96
  0
LWPOLYLINE
  5
D05
330
1F
100
AcDbEntity
  8
LAYER4
  6
Continuous
 62
     7
100
AcDbPolyline
 90
        2
 70
     0
 43
0.0
 10
63863.2089
 20
-72.96
 10
63864.8256
 20
-72.96
  0
LWPOLYLINE
  5
D09
330
1F
100
AcDbEntity
  8
LAYER4
  6
Continuous
 62
     7
100
AcDbPolyline
 90
        2
 70
     0
 43
0.0
 10
63879.3755
 20
-72.96
 10
63880.9921
 20
-72.96
  0
LWPOLYLINE
  5
D0D
330
1F
100
AcDbEntity
  8
LAYER4
  6
Continuous
 62
     7
100
AcDbPolyline
 90
        2
 70
     0
 43
0.0
 10
63895.542
 20
-72.96
 10
63897.1587
 20
-72.96
  0
LWPOLYLINE
  5
D11
330
1F
100
AcDbEntity
  8
LAYER4
  6
Continuous
 62
     7
100
AcDbPolyline
 90
        2
 70
     0
 43
0.0
 10
63911.7085
 20
-72.96
 10
63913.3252
 20
-72.96
  0
LWPOLYLINE
  5
D15
330
1F
100
AcDbEntity
  8
LAYER4
  6
Continuous
 62
     7
100
AcDbPolyline
 90
        2
 70
     0
 43
0.0
 10
63927.8751
 20
-72.96
 10
63929.4917
 20
-72.96
  0
LWPOLYLINE
  5
D19
330
1F
100
AcDbEntity
  8
LAYER4
  6
Continuous
 62
     7
100
AcDbPolyline
 90
        2
 70
     0
 43
0.0
 10
63944.0416
 20
-72.96
 10
63945.6582
 20
-72.96
  0
LWPOLYLINE
  5
D1D
330
1F
100
AcDbEntity
  8
LAYER4
  6
Continuous
 62
     7
100
AcDbPolyline
 90
        2
 70
     0
 43
0.0
 10
63960.2081
 20
-72.96
 10
63961.8248
 20
-72.96
  0
LWPOLYLINE
  5
D21
330
1F
100
AcDbEntity
  8
LAYER4
  6
Continuous
 62
     7
100
AcDbPolyline
 90
        2
 70
     0
 43
0.0
 10
63976.3746
 20
-72.96
 10
63977.9913
 20
-72.96
  0
LWPOLYLINE
  5
D25
330
1F
100
AcDbEntity
  8
LAYER4
  6
Continuous
 62
     7
100
AcDbPolyline
 90
        2
 70
     0
 43
0.0
 10
63992.5412
 20
-72.96
 10
63994.1578
 20
-72.96
  0
LWPOLYLINE
  5
D29
330
1F
100
AcDbEntity
  8
LAYER4
  6
Continuous
 62
     7
100
AcDbPolyline
 90
        2
 70
     0
 43
0.0
 10
64008.7077
 20
-72.96
 10
64010.3243
 20
-72.96
  0
LWPOLYLINE
  5
D2D
330
1F
100
AcDbEntity
  8
LAYER4
  6
Continuous
 62
     7
100
AcDbPolyline
 90
        2
 70
     0
 43
0.0
 10
64024.8742
 20
-72.96
 10
64026.4909
 20
-72.96
  0
LWPOLYLINE
  5
D31
330
1F
100
AcDbEntity
  8
LAYER4
  6
Continuous
 62
     7
100
AcDbPolyline
 90
        2
 70
     0
 43
0.0
 10
64041.0408
 20
-72.96
 10
64042.6574
 20
-72.96
  0
LWPOLYLINE
  5
D35
330
1F
100
AcDbEntity
  8
LAYER4
  6
Continuous
 62
     7
100
AcDbPolyline
 90
        2
 70
     0
 43
0.0
 10
64057.2073
 20
-72.96
 10
64058.8239
 20
-72.96
  0
LWPOLYLINE
  5
D39
330
1F
100
AcDbEntity
  8
LAYER4
  6
Continuous
 62
     7
100
AcDbPolyline
 90
        2
 70
     0
 43
0.0
 10
64073.3738
 20
-72.96
 10
64074.9905
 20
-72.96
  0
LWPOLYLINE
  5
D3D
330
1F
100
AcDbEntity
  8
LAYER4
  6
Continuous
 62
     7
100
AcDbPolyline
 90
        2
 70
     0
 43
0.0
 10
64089.5403
 20
-72.96
 10
64091.157
 20
-72.96
  0
LWPOLYLINE
  5
D41
330
1F
100
AcDbEntity
  8
LAYER4
  6
Continuous
 62
     7
100
AcDbPolyline
 90
        2
 70
     0
 43
0.0
 10
64105.7069
 20
-72.96
 10
64107.3235
 20
-72.96
  0
LWPOLYLINE
  5
D45
330
1F
100
AcDbEntity
  8
LAYER4
  6
Continuous
 62
     7
100
AcDbPolyline
 90
        2
 70
     0
 43
0.0
 10
63758.1265
 20
-64.8767
 10
63759.7432
 20
-64.8767
  0
LWPOLYLINE
  5
D49
330
1F
100
AcDbEntity
  8
LAYER4
  6
Continuous
 62
     7
100
AcDbPolyline
 90
        2
 70
     0
 43
0.0
 10
63774.293
 20
-64.8767
 10
63775.9097
 20
-64.8767
  0
LWPOLYLINE
  5
D4D
330
1F
100
AcDbEntity
  8
LAYER4
  6
Continuous
 62
     7
100
AcDbPolyline
 90
        2
 70
     0
 43
0.0
 10
63790.4596
 20
-64.8767
 10
63792.0762
 20
-64.8767
  0
LWPOLYLINE
  5
D51
330
1F
100
AcDbEntity
  8
LAYER4
  6
Continuous
 62
     7
100
AcDbPolyline
 90
        2
 70
     0
 43
0.0
 10
63806.6261
 20
-64.8767
 10
63808.2428
 20
-64.8767
  0
LWPOLYLINE
  5
D55
330
1F
100
AcDbEntity
  8
LAYER4
  6
Continuous
 62
     7
100
AcDbPolyline
 90
        2
 70
     0
 43
0.0
 10
63822.7926
 20
-64.8767
 10
63824.4093
 20
-64.8767
  0
LWPOLYLINE
  5
D59
330
1F
100
AcDbEntity
  8
LAYER4
  6
Continuous
 62
     7
100
AcDbPolyline
 90
        2
 70
     0
 43
0.0
 10
63838.9592
 20
-64.8767
 10
63840.5758
 20
-64.8767
  0
LWPOLYLINE
  5
D5D
330
1F
100
AcDbEntity
  8
LAYER4
  6
Continuous
 62
     7
100
AcDbPolyline
 90
        2
 70
     0
 43
0.0
 10
63855.1257
 20
-64.8767
 10
63856.7423
 20
-64.8767
  0
LWPOLYLINE
  5
D61
330
1F
100
AcDbEntity
  8
LAYER4
  6
Continuous
 62
     7
100
AcDbPolyline
 90
        2
 70
     0
 43
0.0
 10
63871.2922
 20
-64.8767
 10
63872.9089
 20
-64.8767
  0
LWPOLYLINE
  5
D65
330
1F
100
AcDbEntity
  8
LAYER4
  6
Continuous
 62
     7
100
AcDbPolyline
 90
        2
 70
     0
 43
0.0
 10
63887.4587
 20
-64.8767
 10
63889.0754
 20
-64.8767
  0
LWPOLYLINE
  5
D69
330
1F
100
AcDbEntity
  8
LAYER4
  6
Continuous
 62
     7
100
AcDbPolyline
 90
        2
 70
     0
 43
0.0
 10
63903.6253
 20
-64.8767
 10
63905.2419
 20
-64.8767
  0
LWPOLYLINE
  5
D6D
330
1F
100
AcDbEntity
  8
LAYER4
  6
Continuous
 62
     7
100
AcDbPolyline
 90
        2
 70
     0
 43
0.0
 10
63919.7918
 20
-64.8767
 10
63921.4084
 20
-64.8767
  0
LWPOLYLINE
  5
D71
330
1F
100
AcDbEntity
  8
LAYER4
  6
Continuous
 62
     7
100
AcDbPolyline
 90
        2
 70
     0
 43
0.0
 10
63935.9583
 20
-64.8767
 10
63937.575
 20
-64.8767
  0
LWPOLYLINE
  5
D75
330
1F
100
AcDbEntity
  8
LAYER4
  6
Continuous
 62
     7
100
AcDbPolyline
 90
        2
 70
     0
 43
0.0
 10
63952.1248
 20
-64.8767
 10
63953.7415
 20
-64.8767
  0
LWPOLYLINE
  5
D79
330
1F
100
AcDbEntity
  8
LAYER4
  6
Continuous
 62
     7
100
AcDbPolyline
 90
        2
 70
     0
 43
0.0
 10
63968.2914
 20
-64.8767
 10
63969.908
 20
-64.8767
  0
LWPOLYLINE
  5
D7D
330
1F
100
AcDbEntity
  8
LAYER4
  6
Continuous
 62
     7
100
AcDbPolyline
 90
        2
 70
     0
 43
0.0
 10
63984.4579
 20
-64.8767
 10
63986.0746
 20
-64.8767
  0
LWPOLYLINE
  5
D81
330
1F
100
AcDbEntity
  8
LAYER4
  6
Continuous
 62
     7
100
AcDbPolyline
 90
        2
 70
     0
 43
0.0
 10
64000.6244
 20
-64.8767
 10
64002.2411
 20
-64.8767
  0
LWPOLYLINE
  5
D85
330
1F
100
AcDbEntity
  8
LAYER4
  6
Continuous
 62
     7
100
AcDbPolyline
 90
        2
 70
     0
 43
0.0
 10
64016.791
 20
-64.8767
 10
64018.4076
 20
-64.8767
  0
LWPOLYLINE
  5
D89
330
1F
100
AcDbEntity
  8
LAYER4
  6
Continuous
 62
     7
100
AcDbPolyline
 90
        2
 70
     0
 43
0.0
 10
64032.9575
 20
-64.8767
 10
64034.5741
 20
-64.8767
  0
LWPOLYLINE
  5
D8D
330
1F
100
AcDbEntity
  8
LAYER4
  6
Continuous
 62
     7
100
AcDbPolyline
 90
        2
 70
     0
 43
0.0
 10
64049.124
 20
-64.8767
 10
64050.7407
 20
-64.8767
  0
LWPOLYLINE
  5
D91
330
1F
100
AcDbEntity
  8
LAYER4
  6
Continuous
 62
     7
100
AcDbPolyline
 90
        2
 70
     0
 43
0.0
 10
64065.2905
 20
-64.8767
 10
64066.9072
 20
-64.8767
  0
LWPOLYLINE
  5
D95
330
1F
100
AcDbEntity
  8
LAYER4
  6
Continuous
 62
     7
100
AcDbPolyline
 90
        2
 70
     0
 43
0.0
 10
64081.4571
 20
-64.8767
 10
64083.0737
 20
-64.8767
  0
LWPOLYLINE
  5
D99
330
1F
100
AcDbEntity
  8
LAYER4
  6
Continuous
 62
     7
100
AcDbPolyline
 90
        2
 70
     0
 43
0.0
 10
64097.6236
 20
-64.8767
 10
64099.2403
 20
-64.8767
  0
LWPOLYLINE
  5
D9D
330
1F
100
AcDbEntity
  8
LAYER4
  6
Continuous
 62
     7
100
AcDbPolyline
 90
        2
 70
     0
 43
0.0
 10
64113.7901
 20
-64.8767
 10
64115.4068
 20
-64.8767
  0
LWPOLYLINE
  5
DA1
330
1F
100
AcDbEntity
  8
LAYER4
  6
Continuous
 62
     7
100
AcDbPolyline
 90
        2
 70
     0
 43
0.0
 10
63751.4457
 20
-56.7934
 10
63751.6599
 20
-56.7934
  0
LWPOLYLINE
  5
DA5
330
1F
100
AcDbEntity
  8
LAYER4
  6
Continuous
 62
     7
100
AcDbPolyline
 90
        2
 70
     0
 43
0.0
 10
63766.2098
 20
-56.7934
 10
63767.8264
 20
-56.7934
  0
LWPOLYLINE
  5
DA9
330
1F
100
AcDbEntity
  8
LAYER4
  6
Continuous
 62
     7
100
AcDbPolyline
 90
        2
 70
     0
 43
0.0
 10
63782.3763
 20
-56.7934
 10
63783.993
 20
-56.7934
  0
LWPOLYLINE
  5
DAD
330
1F
100
AcDbEntity
  8
LAYER4
  6
Continuous
 62
     7
100
AcDbPolyline
 90
        2
 70
     0
 43
0.0
 10
63798.5428
 20
-56.7934
 10
63800.1595
 20
-56.7934
  0
LWPOLYLINE
  5
DB1
330
1F
100
AcDbEntity
  8
LAYER4
  6
Continuous
 62
     7
100
AcDbPolyline
 90
        2
 70
     0
 43
0.0
 10
63814.7094
 20
-56.7934
 10
63816.326
 20
-56.7934
  0
LWPOLYLINE
  5
DB5
330
1F
100
AcDbEntity
  8
LAYER4
  6
Continuous
 62
     7
100
AcDbPolyline
 90
        2
 70
     0
 43
0.0
 10
63830.8759
 20
-56.7934
 10
63832.4925
 20
-56.7934
  0
LWPOLYLINE
  5
DB9
330
1F
100
AcDbEntity
  8
LAYER4
  6
Continuous
 62
     7
100
AcDbPolyline
 90
        2
 70
     0
 43
0.0
 10
63847.0424
 20
-56.7934
 10
63848.6591
 20
-56.7934
  0
LWPOLYLINE
  5
DBD
330
1F
100
AcDbEntity
  8
LAYER4
  6
Continuous
 62
     7
100
AcDbPolyline
 90
        2
 70
     0
 43
0.0
 10
63863.2089
 20
-56.7934
 10
63864.8256
 20
-56.7934
  0
LWPOLYLINE
  5
DC1
330
1F
100
AcDbEntity
  8
LAYER4
  6
Continuous
 62
     7
100
AcDbPolyline
 90
        2
 70
     0
 43
0.0
 10
63879.3755
 20
-56.7934
 10
63880.9921
 20
-56.7934
  0
LWPOLYLINE
  5
DC5
330
1F
100
AcDbEntity
  8
LAYER4
  6
Continuous
 62
     7
100
AcDbPolyline
 90
        2
 70
     0
 43
0.0
 10
63895.542
 20
-56.7934
 10
63897.1587
 20
-56.7934
  0
LWPOLYLINE
  5
DC9
330
1F
100
AcDbEntity
  8
LAYER4
  6
Continuous
 62
     7
100
AcDbPolyline
 90
        2
 70
     0
 43
0.0
 10
63911.7085
 20
-56.7934
 10
63913.3252
 20
-56.7934
  0
LWPOLYLINE
  5
DCD
330
1F
100
AcDbEntity
  8
LAYER4
  6
Continuous
 62
     7
100
AcDbPolyline
 90
        2
 70
     0
 43
0.0
 10
63927.8751
 20
-56.7934
 10
63929.4917
 20
-56.7934
  0
LWPOLYLINE
  5
DD1
330
1F
100
AcDbEntity
  8
LAYER4
  6
Continuous
 62
     7
100
AcDbPolyline
 90
        2
 70
     0
 43
0.0
 10
63944.0416
 20
-56.7934
 10
63945.6582
 20
-56.7934
  0
LWPOLYLINE
  5
DD5
330
1F
100
AcDbEntity
  8
LAYER4
  6
Continuous
 62
     7
100
AcDbPolyline
 90
        2
 70
     0
 43
0.0
 10
63960.2081
 20
-56.7934
 10
63961.8248
 20
-56.7934
  0
LWPOLYLINE
  5
DD9
330
1F
100
AcDbEntity
  8
LAYER4
  6
Continuous
 62
     7
100
AcDbPolyline
 90
        2
 70
     0
 43
0.0
 10
63976.3746
 20
-56.7934
 10
63977.9913
 20
-56.7934
  0
LWPOLYLINE
  5
DDD
330
1F
100
AcDbEntity
  8
LAYER4
  6
Continuous
 62
     7
100
AcDbPolyline
 90
        2
 70
     0
 43
0.0
 10
63992.5412
 20
-56.7934
 10
63994.1578
 20
-56.7934
  0
LWPOLYLINE
  5
DE1
330
1F
100
AcDbEntity
  8
LAYER4
  6
Continuous
 62
     7
100
AcDbPolyline
 90
        2
 70
     0
 43
0.0
 10
64008.7077
 20
-56.7934
 10
64010.3243
 20
-56.7934
  0
LWPOLYLINE
  5
DE5
330
1F
100
AcDbEntity
  8
LAYER4
  6
Continuous
 62
     7
100
AcDbPolyline
 90
        2
 70
     0
 43
0.0
 10
64024.8742
 20
-56.7934
 10
64026.4909
 20
-56.7934
  0
LWPOLYLINE
  5
DE9
330
1F
100
AcDbEntity
  8
LAYER4
  6
Continuous
 62
     7
100
AcDbPolyline
 90
        2
 70
     0
 43
0.0
 10
64041.0408
 20
-56.7934
 10
64042.6574
 20
-56.7934
  0
LWPOLYLINE
  5
DED
330
1F
100
AcDbEntity
  8
LAYER4
  6
Continuous
 62
     7
100
AcDbPolyline
 90
        2
 70
     0
 43
0.0
 10
64057.2073
 20
-56.7934
 10
64058.8239
 20
-56.7934
  0
LWPOLYLINE
  5
DF1
330
1F
100
AcDbEntity
  8
LAYER4
  6
Continuous
 62
     7
100
AcDbPolyline
 90
        2
 70
     0
 43
0.0
 10
64073.3738
 20
-56.7934
 10
64074.9905
 20
-56.7934
  0
LWPOLYLINE
  5
DF5
330
1F
100
AcDbEntity
  8
LAYER4
  6
Continuous
 62
     7
100
AcDbPolyline
 90
        2
 70
     0
 43
0.0
 10
64089.5403
 20
-56.7934
 10
64091.157
 20
-56.7934
  0
LWPOLYLINE
  5
DF9
330
1F
100
AcDbEntity
  8
LAYER4
  6
Continuous
 62
     7
100
AcDbPolyline
 90
        2
 70
     0
 43
0.0
 10
64105.7069
 20
-56.7934
 10
64107.3235
 20
-56.7934
  0
LWPOLYLINE
  5
DFD
330
1F
100
AcDbEntity
  8
LAYER4
  6
Continuous
 62
     7
100
AcDbPolyline
 90
        2
 70
     0
 43
0.0
 10
63750.8839
 20
-121.4596
 10
63751.6599
 20
-121.4596
  0
LWPOLYLINE
  5
E01
330
1F
100
AcDbEntity
  8
LAYER4
  6
Continuous
 62
     7
100
AcDbPolyline
 90
        2
 70
     0
 43
0.0
 10
63766.2098
 20
-121.4596
 10
63767.8264
 20
-121.4596
  0
LWPOLYLINE
  5
E05
330
1F
100
AcDbEntity
  8
LAYER4
  6
Continuous
 62
     7
100
AcDbPolyline
 90
        2
 70
     0
 43
0.0
 10
63782.3763
 20
-121.4596
 10
63783.993
 20
-121.4596
  0
LWPOLYLINE
  5
E09
330
1F
100
AcDbEntity
  8
LAYER4
  6
Continuous
 62
     7
100
AcDbPolyline
 90
        2
 70
     0
 43
0.0
 10
63798.5428
 20
-121.4596
 10
63800.1595
 20
-121.4596
  0
LWPOLYLINE
  5
E0D
330
1F
100
AcDbEntity
  8
LAYER4
  6
Continuous
 62
     7
100
AcDbPolyline
 90
        2
 70
     0
 43
0.0
 10
63814.7094
 20
-121.4596
 10
63816.326
 20
-121.4596
  0
LWPOLYLINE
  5
E11
330
1F
100
AcDbEntity
  8
LAYER4
  6
Continuous
 62
     7
100
AcDbPolyline
 90
        2
 70
     0
 43
0.0
 10
63830.8759
 20
-121.4596
 10
63832.4925
 20
-121.4596
  0
LWPOLYLINE
  5
E15
330
1F
100
AcDbEntity
  8
LAYER4
  6
Continuous
 62
     7
100
AcDbPolyline
 90
        2
 70
     0
 43
0.0
 10
63847.0424
 20
-121.4596
 10
63848.6591
 20
-121.4596
  0
LWPOLYLINE
  5
E19
330
1F
100
AcDbEntity
  8
LAYER4
  6
Continuous
 62
     7
100
AcDbPolyline
 90
        2
 70
     0
 43
0.0
 10
63863.2089
 20
-121.4596
 10
63864.8256
 20
-121.4596
  0
LWPOLYLINE
  5
E1D
330
1F
100
AcDbEntity
  8
LAYER4
  6
Continuous
 62
     7
100
AcDbPolyline
 90
        2
 70
     0
 43
0.0
 10
63879.3755
 20
-121.4596
 10
63880.9921
 20
-121.4596
  0
LWPOLYLINE
  5
E21
330
1F
100
AcDbEntity
  8
LAYER4
  6
Continuous
 62
     7
100
AcDbPolyline
 90
        2
 70
     0
 43
0.0
 10
63895.542
 20
-121.4596
 10
63897.1587
 20
-121.4596
  0
LWPOLYLINE
  5
E25
330
1F
100
AcDbEntity
  8
LAYER4
  6
Continuous
 62
     7
100
AcDbPolyline
 90
        2
 70
     0
 43
0.0
 10
63911.7085
 20
-121.4596
 10
63913.3252
 20
-121.4596
  0
LWPOLYLINE
  5
E29
330
1F
100
AcDbEntity
  8
LAYER4
  6
Continuous
 62
     7
100
AcDbPolyline
 90
        2
 70
     0
 43
0.0
 10
63927.8751
 20
-121.4596
 10
63929.4917
 20
-121.4596
  0
LWPOLYLINE
  5
E2D
330
1F
100
AcDbEntity
  8
LAYER4
  6
Continuous
 62
     7
100
AcDbPolyline
 90
        2
 70
     0
 43
0.0
 10
63944.0416
 20
-121.4596
 10
63945.6582
 20
-121.4596
  0
LWPOLYLINE
  5
E31
330
1F
100
AcDbEntity
  8
LAYER4
  6
Continuous
 62
     7
100
AcDbPolyline
 90
        2
 70
     0
 43
0.0
 10
63960.2081
 20
-121.4596
 10
63961.8248
 20
-121.4596
  0
LWPOLYLINE
  5
E35
330
1F
100
AcDbEntity
  8
LAYER4
  6
Continuous
 62
     7
100
AcDbPolyline
 90
        2
 70
     0
 43
0.0
 10
63976.3746
 20
-121.4596
 10
63977.9913
 20
-121.4596
  0
LWPOLYLINE
  5
E39
330
1F
100
AcDbEntity
  8
LAYER4
  6
Continuous
 62
     7
100
AcDbPolyline
 90
        2
 70
     0
 43
0.0
 10
63992.5412
 20
-121.4596
 10
63994.1578
 20
-121.4596
  0
LWPOLYLINE
  5
E3D
330
1F
100
AcDbEntity
  8
LAYER4
  6
Continuous
 62
     7
100
AcDbPolyline
 90
        2
 70
     0
 43
0.0
 10
64008.7077
 20
-121.4596
 10
64010.3243
 20
-121.4596
  0
LWPOLYLINE
  5
E41
330
1F
100
AcDbEntity
  8
LAYER4
  6
Continuous
 62
     7
100
AcDbPolyline
 90
        2
 70
     0
 43
0.0
 10
63758.1265
 20
-129.5428
 10
63759.7432
 20
-129.5428
  0
LWPOLYLINE
  5
E45
330
1F
100
AcDbEntity
  8
LAYER4
  6
Continuous
 62
     7
100
AcDbPolyline
 90
        2
 70
     0
 43
0.0
 10
63774.293
 20
-129.5428
 10
63775.9097
 20
-129.5428
  0
LWPOLYLINE
  5
E49
330
1F
100
AcDbEntity
  8
LAYER4
  6
Continuous
 62
     7
100
AcDbPolyline
 90
        2
 70
     0
 43
0.0
 10
63790.4596
 20
-129.5428
 10
63792.0762
 20
-129.5428
  0
LWPOLYLINE
  5
E4D
330
1F
100
AcDbEntity
  8
LAYER4
  6
Continuous
 62
     7
100
AcDbPolyline
 90
        2
 70
     0
 43
0.0
 10
63806.6261
 20
-129.5428
 10
63808.2428
 20
-129.5428
  0
LWPOLYLINE
  5
E51
330
1F
100
AcDbEntity
  8
LAYER4
  6
Continuous
 62
     7
100
AcDbPolyline
 90
        2
 70
     0
 43
0.0
 10
63822.7926
 20
-129.5428
 10
63824.4093
 20
-129.5428
  0
LWPOLYLINE
  5
E55
330
1F
100
AcDbEntity
  8
LAYER4
  6
Continuous
 62
     7
100
AcDbPolyline
 90
        2
 70
     0
 43
0.0
 10
63838.9592
 20
-129.5428
 10
63840.5758
 20
-129.5428
  0
LWPOLYLINE
  5
E59
330
1F
100
AcDbEntity
  8
LAYER4
  6
Continuous
 62
     7
100
AcDbPolyline
 90
        2
 70
     0
 43
0.0
 10
63855.1257
 20
-129.5428
 10
63856.7423
 20
-129.5428
  0
LWPOLYLINE
  5
E5D
330
1F
100
AcDbEntity
  8
LAYER4
  6
Continuous
 62
     7
100
AcDbPolyline
 90
        2
 70
     0
 43
0.0
 10
63871.2922
 20
-129.5428
 10
63872.9089
 20
-129.5428
  0
LWPOLYLINE
  5
E61
330
1F
100
AcDbEntity
  8
LAYER4
  6
Continuous
 62
     7
100
AcDbPolyline
 90
        2
 70
     0
 43
0.0
 10
63887.4587
 20
-129.5428
 10
63889.0754
 20
-129.5428
  0
LWPOLYLINE
  5
E65
330
1F
100
AcDbEntity
  8
LAYER4
  6
Continuous
 62
     7
100
AcDbPolyline
 90
        2
 70
     0
 43
0.0
 10
63903.6253
 20
-129.5428
 10
63905.2419
 20
-129.5428
  0
LWPOLYLINE
  5
E69
330
1F
100
AcDbEntity
  8
LAYER4
  6
Continuous
 62
     7
100
AcDbPolyline
 90
        2
 70
     0
 43
0.0
 10
63919.7918
 20
-129.5428
 10
63921.4084
 20
-129.5428
  0
LWPOLYLINE
  5
E6D
330
1F
100
AcDbEntity
  8
LAYER4
  6
Continuous
 62
     7
100
AcDbPolyline
 90
        2
 70
     0
 43
0.0
 10
63935.9583
 20
-129.5428
 10
63937.575
 20
-129.5428
  0
LWPOLYLINE
  5
E71
330
1F
100
AcDbEntity
  8
LAYER4
  6
Continuous
 62
     7
100
AcDbPolyline
 90
        2
 70
     0
 43
0.0
 10
63952.1248
 20
-129.5428
 10
63953.7415
 20
-129.5428
  0
LWPOLYLINE
  5
E75
330
1F
100
AcDbEntity
  8
LAYER4
  6
Continuous
 62
     7
100
AcDbPolyline
 90
        2
 70
     0
 43
0.0
 10
63968.2914
 20
-129.5428
 10
63969.908
 20
-129.5428
  0
LWPOLYLINE
  5
E79
330
1F
100
AcDbEntity
  8
LAYER4
  6
Continuous
 62
     7
100
AcDbPolyline
 90
        2
 70
     0
 43
0.0
 10
63984.4579
 20
-129.5428
 10
63986.0746
 20
-129.5428
  0
LWPOLYLINE
  5
E7D
330
1F
100
AcDbEntity
  8
LAYER4
  6
Continuous
 62
     7
100
AcDbPolyline
 90
        2
 70
     0
 43
0.0
 10
64000.6244
 20
-129.5428
 10
64002.2411
 20
-129.5428
  0
LWPOLYLINE
  5
E81
330
1F
100
AcDbEntity
  8
LAYER4
  6
Continuous
 62
     7
100
AcDbPolyline
 90
        2
 70
     0
 43
0.0
 10
64016.791
 20
-129.5428
 10
64018.4076
 20
-129.5428
  0
LWPOLYLINE
  5
E85
330
1F
100
AcDbEntity
  8
LAYER4
  6
Continuous
 62
     7
100
AcDbPolyline
 90
        2
 70
     0
 43
0.0
 10
64032.9575
 20
-129.5428
 10
64034.5741
 20
-129.5428
  0
LWPOLYLINE
  5
E89
330
1F
100
AcDbEntity
  8
LAYER4
  6
Continuous
 62
     7
100
AcDbPolyline
 90
        2
 70
     0
 43
0.0
 10
64049.124
 20
-129.5428
 10
64050.7407
 20
-129.5428
  0
LWPOLYLINE
  5
E8D
330
1F
100
AcDbEntity
  8
LAYER4
  6
Continuous
 62
     7
100
AcDbPolyline
 90
        2
 70
     0
 43
0.0
 10
64065.2905
 20
-129.5428
 10
64066.9072
 20
-129.5428
  0
LWPOLYLINE
  5
E91
330
1F
100
AcDbEntity
  8
LAYER4
  6
Continuous
 62
     7
100
AcDbPolyline
 90
        2
 70
     0
 43
0.0
 10
64081.4571
 20
-129.5428
 10
64083.0737
 20
-129.5428
  0
LWPOLYLINE
  5
E95
330
1F
100
AcDbEntity
  8
LAYER4
  6
Continuous
 62
     7
100
AcDbPolyline
 90
        2
 70
     0
 43
0.0
 10
64097.6236
 20
-129.5428
 10
64099.2403
 20
-129.5428
  0
LWPOLYLINE
  5
E99
330
1F
100
AcDbEntity
  8
LAYER4
  6
Continuous
 62
     7
100
AcDbPolyline
 90
        2
 70
     0
 43
0.0
 10
64113.7901
 20
-129.5428
 10
64115.4068
 20
-129.5428
  0
LWPOLYLINE
  5
E9D
330
1F
100
AcDbEntity
  8
LAYER4
  6
Continuous
 62
     7
100
AcDbPolyline
 90
        2
 70
     0
 43
0.0
 10
63750.7465
 20
-137.6261
 10
63751.6599
 20
-137.6261
  0
LWPOLYLINE
  5
EA1
330
1F
100
AcDbEntity
  8
LAYER4
  6
Continuous
 62
     7
100
AcDbPolyline
 90
        2
 70
     0
 43
0.0
 10
63766.2098
 20
-137.6261
 10
63767.8264
 20
-137.6261
  0
LWPOLYLINE
  5
EA5
330
1F
100
AcDbEntity
  8
LAYER4
  6
Continuous
 62
     7
100
AcDbPolyline
 90
        2
 70
     0
 43
0.0
 10
63782.3763
 20
-137.6261
 10
63783.993
 20
-137.6261
  0
LWPOLYLINE
  5
EA9
330
1F
100
AcDbEntity
  8
LAYER4
  6
Continuous
 62
     7
100
AcDbPolyline
 90
        2
 70
     0
 43
0.0
 10
63798.5428
 20
-137.6261
 10
63800.1595
 20
-137.6261
  0
LWPOLYLINE
  5
EAD
330
1F
100
AcDbEntity
  8
LAYER4
  6
Continuous
 62
     7
100
AcDbPolyline
 90
        2
 70
     0
 43
0.0
 10
63814.7094
 20
-137.6261
 10
63816.326
 20
-137.6261
  0
LWPOLYLINE
  5
EB1
330
1F
100
AcDbEntity
  8
LAYER4
  6
Continuous
 62
     7
100
AcDbPolyline
 90
        2
 70
     0
 43
0.0
 10
63830.8759
 20
-137.6261
 10
63832.4925
 20
-137.6261
  0
LWPOLYLINE
  5
EB5
330
1F
100
AcDbEntity
  8
LAYER4
  6
Continuous
 62
     7
100
AcDbPolyline
 90
        2
 70
     0
 43
0.0
 10
63847.0424
 20
-137.6261
 10
63848.6591
 20
-137.6261
  0
LWPOLYLINE
  5
EB9
330
1F
100
AcDbEntity
  8
LAYER4
  6
Continuous
 62
     7
100
AcDbPolyline
 90
        2
 70
     0
 43
0.0
 10
63863.2089
 20
-137.6261
 10
63864.8256
 20
-137.6261
  0
LWPOLYLINE
  5
EBD
330
1F
100
AcDbEntity
  8
LAYER4
  6
Continuous
 62
     7
100
AcDbPolyline
 90
        2
 70
     0
 43
0.0
 10
63879.3755
 20
-137.6261
 10
63880.9921
 20
-137.6261
  0
LWPOLYLINE
  5
EC1
330
1F
100
AcDbEntity
  8
LAYER4
  6
Continuous
 62
     7
100
AcDbPolyline
 90
        2
 70
     0
 43
0.0
 10
63895.542
 20
-137.6261
 10
63897.1587
 20
-137.6261
  0
LWPOLYLINE
  5
EC5
330
1F
100
AcDbEntity
  8
LAYER4
  6
Continuous
 62
     7
100
AcDbPolyline
 90
        2
 70
     0
 43
0.0
 10
63911.7085
 20
-137.6261
 10
63913.3252
 20
-137.6261
  0
LWPOLYLINE
  5
EC9
330
1F
100
AcDbEntity
  8
LAYER4
  6
Continuous
 62
     7
100
AcDbPolyline
 90
        2
 70
     0
 43
0.0
 10
63927.8751
 20
-137.6261
 10
63929.4917
 20
-137.6261
  0
LWPOLYLINE
  5
ECD
330
1F
100
AcDbEntity
  8
LAYER4
  6
Continuous
 62
     7
100
AcDbPolyline
 90
        2
 70
     0
 43
0.0
 10
63944.0416
 20
-137.6261
 10
63945.6582
 20
-137.6261
  0
LWPOLYLINE
  5
ED1
330
1F
100
AcDbEntity
  8
LAYER4
  6
Continuous
 62
     7
100
AcDbPolyline
 90
        2
 70
     0
 43
0.0
 10
63960.2081
 20
-137.6261
 10
63961.8248
 20
-137.6261
  0
LWPOLYLINE
  5
ED5
330
1F
100
AcDbEntity
  8
LAYER4
  6
Continuous
 62
     7
100
AcDbPolyline
 90
        2
 70
     0
 43
0.0
 10
63976.3746
 20
-137.6261
 10
63977.9913
 20
-137.6261
  0
LWPOLYLINE
  5
ED9
330
1F
100
AcDbEntity
  8
LAYER4
  6
Continuous
 62
     7
100
AcDbPolyline
 90
        2
 70
     0
 43
0.0
 10
63992.5412
 20
-137.6261
 10
63994.1578
 20
-137.6261
  0
LWPOLYLINE
  5
EDD
330
1F
100
AcDbEntity
  8
LAYER4
  6
Continuous
 62
     7
100
AcDbPolyline
 90
        2
 70
     0
 43
0.0
 10
64008.7077
 20
-137.6261
 10
64010.3243
 20
-137.6261
  0
LWPOLYLINE
  5
EE1
330
1F
100
AcDbEntity
  8
LAYER4
  6
Continuous
 62
     7
100
AcDbPolyline
 90
        2
 70
     0
 43
0.0
 10
64024.8742
 20
-137.6261
 10
64026.4909
 20
-137.6261
  0
LWPOLYLINE
  5
EE5
330
1F
100
AcDbEntity
  8
LAYER4
  6
Continuous
 62
     7
100
AcDbPolyline
 90
        2
 70
     0
 43
0.0
 10
64041.0408
 20
-137.6261
 10
64042.6574
 20
-137.6261
  0
LWPOLYLINE
  5
EE9
330
1F
100
AcDbEntity
  8
LAYER4
  6
Continuous
 62
     7
100
AcDbPolyline
 90
        2
 70
     0
 43
0.0
 10
64057.2073
 20
-137.6261
 10
64058.8239
 20
-137.6261
  0
LWPOLYLINE
  5
EED
330
1F
100
AcDbEntity
  8
LAYER4
  6
Continuous
 62
     7
100
AcDbPolyline
 90
        2
 70
     0
 43
0.0
 10
64073.3738
 20
-137.6261
 10
64074.9905
 20
-137.6261
  0
LWPOLYLINE
  5
EF1
330
1F
100
AcDbEntity
  8
LAYER4
  6
Continuous
 62
     7
100
AcDbPolyline
 90
        2
 70
     0
 43
0.0
 10
64089.5403
 20
-137.6261
 10
64091.157
 20
-137.6261
  0
LWPOLYLINE
  5
EF5
330
1F
100
AcDbEntity
  8
LAYER4
  6
Continuous
 62
     7
100
AcDbPolyline
 90
        2
 70
     0
 43
0.0
 10
64105.7069
 20
-137.6261
 10
64107.3235
 20
-137.6261
  0
LWPOLYLINE
  5
EF9
330
1F
100
AcDbEntity
  8
LAYER4
  6
Continuous
 62
     7
100
AcDbPolyline
 90
        2
 70
     0
 43
0.0
 10
63758.1265
 20
-145.7094
 10
63759.7432
 20
-145.7094
  0
LWPOLYLINE
  5
EFD
330
1F
100
AcDbEntity
  8
LAYER4
  6
Continuous
 62
     7
100
AcDbPolyline
 90
        2
 70
     0
 43
0.0
 10
63774.293
 20
-145.7094
 10
63775.9097
 20
-145.7094
  0
LWPOLYLINE
  5
F01
330
1F
100
AcDbEntity
  8
LAYER4
  6
Continuous
 62
     7
100
AcDbPolyline
 90
        2
 70
     0
 43
0.0
 10
63790.4596
 20
-145.7094
 10
63792.0762
 20
-145.7094
  0
LWPOLYLINE
  5
F05
330
1F
100
AcDbEntity
  8
LAYER4
  6
Continuous
 62
     7
100
AcDbPolyline
 90
        2
 70
     0
 43
0.0
 10
63806.6261
 20
-145.7094
 10
63808.2428
 20
-145.7094
  0
LWPOLYLINE
  5
F09
330
1F
100
AcDbEntity
  8
LAYER4
  6
Continuous
 62
     7
100
AcDbPolyline
 90
        2
 70
     0
 43
0.0
 10
63822.7926
 20
-145.7094
 10
63824.4093
 20
-145.7094
  0
LWPOLYLINE
  5
F0D
330
1F
100
AcDbEntity
  8
LAYER4
  6
Continuous
 62
     7
100
AcDbPolyline
 90
        2
 70
     0
 43
0.0
 10
63838.9592
 20
-145.7094
 10
63840.5758
 20
-145.7094
  0
LWPOLYLINE
  5
F11
330
1F
100
AcDbEntity
  8
LAYER4
  6
Continuous
 62
     7
100
AcDbPolyline
 90
        2
 70
     0
 43
0.0
 10
63855.1257
 20
-145.7094
 10
63856.7423
 20
-145.7094
  0
LWPOLYLINE
  5
F15
330
1F
100
AcDbEntity
  8
LAYER4
  6
Continuous
 62
     7
100
AcDbPolyline
 90
        2
 70
     0
 43
0.0
 10
63871.2922
 20
-145.7094
 10
63872.9089
 20
-145.7094
  0
LWPOLYLINE
  5
F19
330
1F
100
AcDbEntity
  8
LAYER4
  6
Continuous
 62
     7
100
AcDbPolyline
 90
        2
 70
     0
 43
0.0
 10
63887.4587
 20
-145.7094
 10
63889.0754
 20
-145.7094
  0
LWPOLYLINE
  5
F1D
330
1F
100
AcDbEntity
  8
LAYER4
  6
Continuous
 62
     7
100
AcDbPolyline
 90
        2
 70
     0
 43
0.0
 10
63903.6253
 20
-145.7094
 10
63905.2419
 20
-145.7094
  0
LWPOLYLINE
  5
F21
330
1F
100
AcDbEntity
  8
LAYER4
  6
Continuous
 62
     7
100
AcDbPolyline
 90
        2
 70
     0
 43
0.0
 10
63919.7918
 20
-145.7094
 10
63921.4084
 20
-145.7094
  0
LWPOLYLINE
  5
F25
330
1F
100
AcDbEntity
  8
LAYER4
  6
Continuous
 62
     7
100
AcDbPolyline
 90
        2
 70
     0
 43
0.0
 10
63935.9583
 20
-145.7094
 10
63937.575
 20
-145.7094
  0
LWPOLYLINE
  5
F29
330
1F
100
AcDbEntity
  8
LAYER4
  6
Continuous
 62
     7
100
AcDbPolyline
 90
        2
 70
     0
 43
0.0
 10
63952.1248
 20
-145.7094
 10
63953.7415
 20
-145.7094
  0
LWPOLYLINE
  5
F2D
330
1F
100
AcDbEntity
  8
LAYER4
  6
Continuous
 62
     7
100
AcDbPolyline
 90
        2
 70
     0
 43
0.0
 10
63968.2914
 20
-145.7094
 10
63969.908
 20
-145.7094
  0
LWPOLYLINE
  5
F31
330
1F
100
AcDbEntity
  8
LAYER4
  6
Continuous
 62
     7
100
AcDbPolyline
 90
        2
 70
     0
 43
0.0
 10
63984.4579
 20
-145.7094
 10
63986.0746
 20
-145.7094
  0
LWPOLYLINE
  5
F35
330
1F
100
AcDbEntity
  8
LAYER4
  6
Continuous
 62
     7
100
AcDbPolyline
 90
        2
 70
     0
 43
0.0
 10
64000.6244
 20
-145.7094
 10
64002.2411
 20
-145.7094
  0
LWPOLYLINE
  5
F39
330
1F
100
AcDbEntity
  8
LAYER4
  6
Continuous
 62
     7
100
AcDbPolyline
 90
        2
 70
     0
 43
0.0
 10
64016.791
 20
-145.7094
 10
64018.4076
 20
-145.7094
  0
LWPOLYLINE
  5
F3D
330
1F
100
AcDbEntity
  8
LAYER4
  6
Continuous
 62
     7
100
AcDbPolyline
 90
        2
 70
     0
 43
0.0
 10
64032.9575
 20
-145.7094
 10
64034.5741
 20
-145.7094
  0
LWPOLYLINE
  5
F41
330
1F
100
AcDbEntity
  8
LAYER4
  6
Continuous
 62
     7
100
AcDbPolyline
 90
        2
 70
     0
 43
0.0
 10
64049.124
 20
-145.7094
 10
64050.7407
 20
-145.7094
  0
LWPOLYLINE
  5
F45
330
1F
100
AcDbEntity
  8
LAYER4
  6
Continuous
 62
     7
100
AcDbPolyline
 90
        2
 70
     0
 43
0.0
 10
64065.2905
 20
-145.7094
 10
64066.9072
 20
-145.7094
  0
LWPOLYLINE
  5
F49
330
1F
100
AcDbEntity
  8
LAYER4
  6
Continuous
 62
     7
100
AcDbPolyline
 90
        2
 70
     0
 43
0.0
 10
64081.4571
 20
-145.7094
 10
64083.0737
 20
-145.7094
  0
LWPOLYLINE
  5
F4D
330
1F
100
AcDbEntity
  8
LAYER4
  6
Continuous
 62
     7
100
AcDbPolyline
 90
        2
 70
     0
 43
0.0
 10
64097.6236
 20
-145.7094
 10
64099.2403
 20
-145.7094
  0
LWPOLYLINE
  5
F51
330
1F
100
AcDbEntity
  8
LAYER4
  6
Continuous
 62
     7
100
AcDbPolyline
 90
        2
 70
     0
 43
0.0
 10
64113.7901
 20
-145.7094
 10
64115.4068
 20
-145.7094
  0
LWPOLYLINE
  5
F55
330
1F
100
AcDbEntity
  8
LAYER4
  6
Continuous
 62
     7
100
AcDbPolyline
 90
        2
 70
     0
 43
0.0
 10
63750.605
 20
-153.7926
 10
63751.6599
 20
-153.7926
  0
LWPOLYLINE
  5
F59
330
1F
100
AcDbEntity
  8
LAYER4
  6
Continuous
 62
     7
100
AcDbPolyline
 90
        2
 70
     0
 43
0.0
 10
63766.2098
 20
-153.7926
 10
63767.8264
 20
-153.7926
  0
LWPOLYLINE
  5
F5D
330
1F
100
AcDbEntity
  8
LAYER4
  6
Continuous
 62
     7
100
AcDbPolyline
 90
        2
 70
     0
 43
0.0
 10
63782.3763
 20
-153.7926
 10
63783.993
 20
-153.7926
  0
LWPOLYLINE
  5
F61
330
1F
100
AcDbEntity
  8
LAYER4
  6
Continuous
 62
     7
100
AcDbPolyline
 90
        2
 70
     0
 43
0.0
 10
63798.5428
 20
-153.7926
 10
63800.1595
 20
-153.7926
  0
LWPOLYLINE
  5
F65
330
1F
100
AcDbEntity
  8
LAYER4
  6
Continuous
 62
     7
100
AcDbPolyline
 90
        2
 70
     0
 43
0.0
 10
63814.7094
 20
-153.7926
 10
63816.326
 20
-153.7926
  0
LWPOLYLINE
  5
F69
330
1F
100
AcDbEntity
  8
LAYER4
  6
Continuous
 62
     7
100
AcDbPolyline
 90
        2
 70
     0
 43
0.0
 10
63830.8759
 20
-153.7926
 10
63832.4925
 20
-153.7926
  0
LWPOLYLINE
  5
F6D
330
1F
100
AcDbEntity
  8
LAYER4
  6
Continuous
 62
     7
100
AcDbPolyline
 90
        2
 70
     0
 43
0.0
 10
63847.0424
 20
-153.7926
 10
63848.6591
 20
-153.7926
  0
LWPOLYLINE
  5
F71
330
1F
100
AcDbEntity
  8
LAYER4
  6
Continuous
 62
     7
100
AcDbPolyline
 90
        2
 70
     0
 43
0.0
 10
63863.2089
 20
-153.7926
 10
63864.8256
 20
-153.7926
  0
LWPOLYLINE
  5
F75
330
1F
100
AcDbEntity
  8
LAYER4
  6
Continuous
 62
     7
100
AcDbPolyline
 90
        2
 70
     0
 43
0.0
 10
63879.3755
 20
-153.7926
 10
63880.9921
 20
-153.7926
  0
LWPOLYLINE
  5
F79
330
1F
100
AcDbEntity
  8
LAYER4
  6
Continuous
 62
     7
100
AcDbPolyline
 90
        2
 70
     0
 43
0.0
 10
63895.542
 20
-153.7926
 10
63897.1587
 20
-153.7926
  0
LWPOLYLINE
  5
F7D
330
1F
100
AcDbEntity
  8
LAYER4
  6
Continuous
 62
     7
100
AcDbPolyline
 90
        2
 70
     0
 43
0.0
 10
63911.7085
 20
-153.7926
 10
63913.3252
 20
-153.7926
  0
LWPOLYLINE
  5
F81
330
1F
100
AcDbEntity
  8
LAYER4
  6
Continuous
 62
     7
100
AcDbPolyline
 90
        2
 70
     0
 43
0.0
 10
63927.8751
 20
-153.7926
 10
63929.4917
 20
-153.7926
  0
LWPOLYLINE
  5
F85
330
1F
100
AcDbEntity
  8
LAYER4
  6
Continuous
 62
     7
100
AcDbPolyline
 90
        2
 70
     0
 43
0.0
 10
63944.0416
 20
-153.7926
 10
63945.6582
 20
-153.7926
  0
LWPOLYLINE
  5
F89
330
1F
100
AcDbEntity
  8
LAYER4
  6
Continuous
 62
     7
100
AcDbPolyline
 90
        2
 70
     0
 43
0.0
 10
63960.2081
 20
-153.7926
 10
63961.8248
 20
-153.7926
  0
LWPOLYLINE
  5
F8D
330
1F
100
AcDbEntity
  8
LAYER4
  6
Continuous
 62
     7
100
AcDbPolyline
 90
        2
 70
     0
 43
0.0
 10
63976.3746
 20
-153.7926
 10
63977.9913
 20
-153.7926
  0
LWPOLYLINE
  5
F91
330
1F
100
AcDbEntity
  8
LAYER4
  6
Continuous
 62
     7
100
AcDbPolyline
 90
        2
 70
     0
 43
0.0
 10
63992.5412
 20
-153.7926
 10
63994.1578
 20
-153.7926
  0
LWPOLYLINE
  5
F95
330
1F
100
AcDbEntity
  8
LAYER4
  6
Continuous
 62
     7
100
AcDbPolyline
 90
        2
 70
     0
 43
0.0
 10
64008.7077
 20
-153.7926
 10
64010.3243
 20
-153.7926
  0
LWPOLYLINE
  5
F99
330
1F
100
AcDbEntity
  8
LAYER4
  6
Continuous
 62
     7
100
AcDbPolyline
 90
        2
 70
     0
 43
0.0
 10
64024.8742
 20
-153.7926
 10
64026.4909
 20
-153.7926
  0
LWPOLYLINE
  5
F9D
330
1F
100
AcDbEntity
  8
LAYER4
  6
Continuous
 62
     7
100
AcDbPolyline
 90
        2
 70
     0
 43
0.0
 10
64041.0408
 20
-153.7926
 10
64042.6574
 20
-153.7926
  0
LWPOLYLINE
  5
FA1
330
1F
100
AcDbEntity
  8
LAYER4
  6
Continuous
 62
     7
100
AcDbPolyline
 90
        2
 70
     0
 43
0.0
 10
64057.2073
 20
-153.7926
 10
64058.8239
 20
-153.7926
  0
LWPOLYLINE
  5
FA5
330
1F
100
AcDbEntity
  8
LAYER4
  6
Continuous
 62
     7
100
AcDbPolyline
 90
        2
 70
     0
 43
0.0
 10
64073.3738
 20
-153.7926
 10
64074.9905
 20
-153.7926
  0
LWPOLYLINE
  5
FA9
330
1F
100
AcDbEntity
  8
LAYER4
  6
Continuous
 62
     7
100
AcDbPolyline
 90
        2
 70
     0
 43
0.0
 10
64089.5403
 20
-153.7926
 10
64091.157
 20
-153.7926
  0
LWPOLYLINE
  5
FAD
330
1F
100
AcDbEntity
  8
LAYER4
  6
Continuous
 62
     7
100
AcDbPolyline
 90
        2
 70
     0
 43
0.0
 10
64105.7069
 20
-153.7926
 10
64107.3235
 20
-153.7926
  0
LWPOLYLINE
  5
FB1
330
1F
100
AcDbEntity
  8
LAYER4
  6
Continuous
 62
     7
100
AcDbPolyline
 90
        2
 70
     0
 43
0.0
 10
63758.1265
 20
-161.8759
 10
63759.7432
 20
-161.8759
  0
LWPOLYLINE
  5
FB5
330
1F
100
AcDbEntity
  8
LAYER4
  6
Continuous
 62
     7
100
AcDbPolyline
 90
        2
 70
     0
 43
0.0
 10
63774.293
 20
-161.8759
 10
63775.9097
 20
-161.8759
  0
LWPOLYLINE
  5
FB9
330
1F
100
AcDbEntity
  8
LAYER4
  6
Continuous
 62
     7
100
AcDbPolyline
 90
        2
 70
     0
 43
0.0
 10
63790.4596
 20
-161.8759
 10
63792.0762
 20
-161.8759
  0
LWPOLYLINE
  5
FBD
330
1F
100
AcDbEntity
  8
LAYER4
  6
Continuous
 62
     7
100
AcDbPolyline
 90
        2
 70
     0
 43
0.0
 10
63806.6261
 20
-161.8759
 10
63808.2428
 20
-161.8759
  0
LWPOLYLINE
  5
FC1
330
1F
100
AcDbEntity
  8
LAYER4
  6
Continuous
 62
     7
100
AcDbPolyline
 90
        2
 70
     0
 43
0.0
 10
63822.7926
 20
-161.8759
 10
63824.4093
 20
-161.8759
  0
LWPOLYLINE
  5
FC5
330
1F
100
AcDbEntity
  8
LAYER4
  6
Continuous
 62
     7
100
AcDbPolyline
 90
        2
 70
     0
 43
0.0
 10
63838.9592
 20
-161.8759
 10
63840.5758
 20
-161.8759
  0
LWPOLYLINE
  5
FC9
330
1F
100
AcDbEntity
  8
LAYER4
  6
Continuous
 62
     7
100
AcDbPolyline
 90
        2
 70
     0
 43
0.0
 10
63855.1257
 20
-161.8759
 10
63856.7423
 20
-161.8759
  0
LWPOLYLINE
  5
FCD
330
1F
100
AcDbEntity
  8
LAYER4
  6
Continuous
 62
     7
100
AcDbPolyline
 90
        2
 70
     0
 43
0.0
 10
63871.2922
 20
-161.8759
 10
63872.9089
 20
-161.8759
  0
LWPOLYLINE
  5
FD1
330
1F
100
AcDbEntity
  8
LAYER4
  6
Continuous
 62
     7
100
AcDbPolyline
 90
        2
 70
     0
 43
0.0
 10
63887.4587
 20
-161.8759
 10
63889.0754
 20
-161.8759
  0
LWPOLYLINE
  5
FD5
330
1F
100
AcDbEntity
  8
LAYER4
  6
Continuous
 62
     7
100
AcDbPolyline
 90
        2
 70
     0
 43
0.0
 10
63903.6253
 20
-161.8759
 10
63905.2419
 20
-161.8759
  0
LWPOLYLINE
  5
FD9
330
1F
100
AcDbEntity
  8
LAYER4
  6
Continuous
 62
     7
100
AcDbPolyline
 90
        2
 70
     0
 43
0.0
 10
63919.7918
 20
-161.8759
 10
63921.4084
 20
-161.8759
  0
LWPOLYLINE
  5
FDD
330
1F
100
AcDbEntity
  8
LAYER4
  6
Continuous
 62
     7
100
AcDbPolyline
 90
        2
 70
     0
 43
0.0
 10
63935.9583
 20
-161.8759
 10
63937.575
 20
-161.8759
  0
LWPOLYLINE
  5
FE1
330
1F
100
AcDbEntity
  8
LAYER4
  6
Continuous
 62
     7
100
AcDbPolyline
 90
        2
 70
     0
 43
0.0
 10
63952.1248
 20
-161.8759
 10
63953.7415
 20
-161.8759
  0
LWPOLYLINE
  5
FE5
330
1F
100
AcDbEntity
  8
LAYER4
  6
Continuous
 62
     7
100
AcDbPolyline
 90
        2
 70
     0
 43
0.0
 10
63968.2914
 20
-161.8759
 10
63969.908
 20
-161.8759
  0
LWPOLYLINE
  5
FE9
330
1F
100
AcDbEntity
  8
LAYER4
  6
Continuous
 62
     7
100
AcDbPolyline
 90
        2
 70
     0
 43
0.0
 10
63984.4579
 20
-161.8759
 10
63986.0746
 20
-161.8759
  0
LWPOLYLINE
  5
FED
330
1F
100
AcDbEntity
  8
LAYER4
  6
Continuous
 62
     7
100
AcDbPolyline
 90
        2
 70
     0
 43
0.0
 10
64000.6244
 20
-161.8759
 10
64002.2411
 20
-161.8759
  0
LWPOLYLINE
  5
FF1
330
1F
100
AcDbEntity
  8
LAYER4
  6
Continuous
 62
     7
100
AcDbPolyline
 90
        2
 70
     0
 43
0.0
 10
64016.791
 20
-161.8759
 10
64018.4076
 20
-161.8759
  0
LWPOLYLINE
  5
FF5
330
1F
100
AcDbEntity
  8
LAYER4
  6
Continuous
 62
     7
100
AcDbPolyline
 90
        2
 70
     0
 43
0.0
 10
64032.9575
 20
-161.8759
 10
64034.5741
 20
-161.8759
  0
LWPOLYLINE
  5
FF9
330
1F
100
AcDbEntity
  8
LAYER4
  6
Continuous
 62
     7
100
AcDbPolyline
 90
        2
 70
     0
 43
0.0
 10
64049.124
 20
-161.8759
 10
64050.7407
 20
-161.8759
  0
LWPOLYLINE
  5
FFD
330
1F
100
AcDbEntity
  8
LAYER4
  6
Continuous
 62
     7
100
AcDbPolyline
 90
        2
 70
     0
 43
0.0
 10
64065.2905
 20
-161.8759
 10
64066.9072
 20
-161.8759
  0
LWPOLYLINE
  5
1001
330
1F
100
AcDbEntity
  8
LAYER4
  6
Continuous
 62
     7
100
AcDbPolyline
 90
        2
 70
     0
 43
0.0
 10
64081.4571
 20
-161.8759
 10
64083.0737
 20
-161.8759
  0
LWPOLYLINE
  5
1005
330
1F
100
AcDbEntity
  8
LAYER4
  6
Continuous
 62
     7
100
AcDbPolyline
 90
        2
 70
     0
 43
0.0
 10
64097.6236
 20
-161.8759
 10
64099.2403
 20
-161.8759
  0
LWPOLYLINE
  5
1009
330
1F
100
AcDbEntity
  8
LAYER4
  6
Continuous
 62
     7
100
AcDbPolyline
 90
        2
 70
     0
 43
0.0
 10
64113.7901
 20
-161.8759
 10
64115.4068
 20
-161.8759
  0
LWPOLYLINE
  5
100D
330
1F
100
AcDbEntity
  8
LAYER4
  6
Continuous
 62
     7
100
AcDbPolyline
 90
        2
 70
     0
 43
0.0
 10
63750.4676
 20
-169.9591
 10
63751.6599
 20
-169.9591
  0
LWPOLYLINE
  5
1011
330
1F
100
AcDbEntity
  8
LAYER4
  6
Continuous
 62
     7
100
AcDbPolyline
 90
        2
 70
     0
 43
0.0
 10
63766.2098
 20
-169.9591
 10
63767.8264
 20
-169.9591
  0
LWPOLYLINE
  5
1015
330
1F
100
AcDbEntity
  8
LAYER4
  6
Continuous
 62
     7
100
AcDbPolyline
 90
        2
 70
     0
 43
0.0
 10
63782.3763
 20
-169.9591
 10
63783.993
 20
-169.9591
  0
LWPOLYLINE
  5
1019
330
1F
100
AcDbEntity
  8
LAYER4
  6
Continuous
 62
     7
100
AcDbPolyline
 90
        2
 70
     0
 43
0.0
 10
63798.5428
 20
-169.9591
 10
63800.1595
 20
-169.9591
  0
LWPOLYLINE
  5
101D
330
1F
100
AcDbEntity
  8
LAYER4
  6
Continuous
 62
     7
100
AcDbPolyline
 90
        2
 70
     0
 43
0.0
 10
63814.7094
 20
-169.9591
 10
63816.326
 20
-169.9591
  0
LWPOLYLINE
  5
1021
330
1F
100
AcDbEntity
  8
LAYER4
  6
Continuous
 62
     7
100
AcDbPolyline
 90
        2
 70
     0
 43
0.0
 10
63830.8759
 20
-169.9591
 10
63832.4925
 20
-169.9591
  0
LWPOLYLINE
  5
1025
330
1F
100
AcDbEntity
  8
LAYER4
  6
Continuous
 62
     7
100
AcDbPolyline
 90
        2
 70
     0
 43
0.0
 10
63847.0424
 20
-169.9591
 10
63848.6591
 20
-169.9591
  0
LWPOLYLINE
  5
1029
330
1F
100
AcDbEntity
  8
LAYER4
  6
Continuous
 62
     7
100
AcDbPolyline
 90
        2
 70
     0
 43
0.0
 10
63863.2089
 20
-169.9591
 10
63864.8256
 20
-169.9591
  0
LWPOLYLINE
  5
102D
330
1F
100
AcDbEntity
  8
LAYER4
  6
Continuous
 62
     7
100
AcDbPolyline
 90
        2
 70
     0
 43
0.0
 10
63879.3755
 20
-169.9591
 10
63880.9921
 20
-169.9591
  0
LWPOLYLINE
  5
1031
330
1F
100
AcDbEntity
  8
LAYER4
  6
Continuous
 62
     7
100
AcDbPolyline
 90
        2
 70
     0
 43
0.0
 10
63895.542
 20
-169.9591
 10
63897.1587
 20
-169.9591
  0
LWPOLYLINE
  5
1035
330
1F
100
AcDbEntity
  8
LAYER4
  6
Continuous
 62
     7
100
AcDbPolyline
 90
        2
 70
     0
 43
0.0
 10
63911.7085
 20
-169.9591
 10
63913.3252
 20
-169.9591
  0
LWPOLYLINE
  5
1039
330
1F
100
AcDbEntity
  8
LAYER4
  6
Continuous
 62
     7
100
AcDbPolyline
 90
        2
 70
     0
 43
0.0
 10
63927.8751
 20
-169.9591
 10
63929.4917
 20
-169.9591
  0
LWPOLYLINE
  5
103D
330
1F
100
AcDbEntity
  8
LAYER4
  6
Continuous
 62
     7
100
AcDbPolyline
 90
        2
 70
     0
 43
0.0
 10
63944.0416
 20
-169.9591
 10
63945.6582
 20
-169.9591
  0
LWPOLYLINE
  5
1041
330
1F
100
AcDbEntity
  8
LAYER4
  6
Continuous
 62
     7
100
AcDbPolyline
 90
        2
 70
     0
 43
0.0
 10
63960.2081
 20
-169.9591
 10
63961.8248
 20
-169.9591
  0
LWPOLYLINE
  5
1045
330
1F
100
AcDbEntity
  8
LAYER4
  6
Continuous
 62
     7
100
AcDbPolyline
 90
        2
 70
     0
 43
0.0
 10
63976.3746
 20
-169.9591
 10
63977.9913
 20
-169.9591
  0
LWPOLYLINE
  5
1049
330
1F
100
AcDbEntity
  8
LAYER4
  6
Continuous
 62
     7
100
AcDbPolyline
 90
        2
 70
     0
 43
0.0
 10
63992.5412
 20
-169.9591
 10
63994.1578
 20
-169.9591
  0
LWPOLYLINE
  5
104D
330
1F
100
AcDbEntity
  8
LAYER4
  6
Continuous
 62
     7
100
AcDbPolyline
 90
        2
 70
     0
 43
0.0
 10
64008.7077
 20
-169.9591
 10
64010.3243
 20
-169.9591
  0
LWPOLYLINE
  5
1051
330
1F
100
AcDbEntity
  8
LAYER4
  6
Continuous
 62
     7
100
AcDbPolyline
 90
        2
 70
     0
 43
0.0
 10
64024.8742
 20
-169.9591
 10
64026.4909
 20
-169.9591
  0
LWPOLYLINE
  5
1055
330
1F
100
AcDbEntity
  8
LAYER4
  6
Continuous
 62
     7
100
AcDbPolyline
 90
        2
 70
     0
 43
0.0
 10
64041.0408
 20
-169.9591
 10
64042.6574
 20
-169.9591
  0
LWPOLYLINE
  5
1059
330
1F
100
AcDbEntity
  8
LAYER4
  6
Continuous
 62
     7
100
AcDbPolyline
 90
        2
 70
     0
 43
0.0
 10
64057.2073
 20
-169.9591
 10
64058.8239
 20
-169.9591
  0
LWPOLYLINE
  5
105D
330
1F
100
AcDbEntity
  8
LAYER4
  6
Continuous
 62
     7
100
AcDbPolyline
 90
        2
 70
     0
 43
0.0
 10
64073.3738
 20
-169.9591
 10
64074.9905
 20
-169.9591
  0
LWPOLYLINE
  5
1061
330
1F
100
AcDbEntity
  8
LAYER4
  6
Continuous
 62
     7
100
AcDbPolyline
 90
        2
 70
     0
 43
0.0
 10
64089.5403
 20
-169.9591
 10
64091.157
 20
-169.9591
  0
LWPOLYLINE
  5
1065
330
1F
100
AcDbEntity
  8
LAYER4
  6
Continuous
 62
     7
100
AcDbPolyline
 90
        2
 70
     0
 43
0.0
 10
64105.7069
 20
-169.9591
 10
64107.3235
 20
-169.9591
  0
LWPOLYLINE
  5
1069
330
1F
100
AcDbEntity
  8
LAYER4
  6
Continuous
 62
     7
100
AcDbPolyline
 90
        2
 70
     0
 43
0.0
 10
64340.4933
 20
-113.3772
 10
64341.7463
 20
-113.3772
  0
LWPOLYLINE
  5
106D
330
1F
100
AcDbEntity
  8
LAYER4
  6
Continuous
 62
     7
100
AcDbPolyline
 90
        2
 70
     0
 43
0.0
 10
64356.2961
 20
-113.3772
 10
64357.9128
 20
-113.3772
  0
LWPOLYLINE
  5
1071
330
1F
100
AcDbEntity
  8
LAYER4
  6
Continuous
 62
     7
100
AcDbPolyline
 90
        2
 70
     0
 43
0.0
 10
64372.4627
 20
-113.3772
 10
64374.0793
 20
-113.3772
  0
LWPOLYLINE
  5
1075
330
1F
100
AcDbEntity
  8
LAYER4
  6
Continuous
 62
     7
100
AcDbPolyline
 90
        2
 70
     0
 43
0.0
 10
64388.6292
 20
-113.3772
 10
64390.2458
 20
-113.3772
  0
LWPOLYLINE
  5
1079
330
1F
100
AcDbEntity
  8
LAYER4
  6
Continuous
 62
     7
100
AcDbPolyline
 90
        2
 70
     0
 43
0.0
 10
64404.7957
 20
-113.3772
 10
64406.4124
 20
-113.3772
  0
LWPOLYLINE
  5
107D
330
1F
100
AcDbEntity
  8
LAYER4
  6
Continuous
 62
     7
100
AcDbPolyline
 90
        2
 70
     0
 43
0.0
 10
64420.9622
 20
-113.3772
 10
64422.5789
 20
-113.3772
  0
LWPOLYLINE
  5
1081
330
1F
100
AcDbEntity
  8
LAYER4
  6
Continuous
 62
     7
100
AcDbPolyline
 90
        2
 70
     0
 43
0.0
 10
64437.1288
 20
-113.3772
 10
64438.7454
 20
-113.3772
  0
LWPOLYLINE
  5
1085
330
1F
100
AcDbEntity
  8
LAYER4
  6
Continuous
 62
     7
100
AcDbPolyline
 90
        2
 70
     0
 43
0.0
 10
64453.2953
 20
-113.3772
 10
64454.9119
 20
-113.3772
  0
LWPOLYLINE
  5
1089
330
1F
100
AcDbEntity
  8
LAYER4
  6
Continuous
 62
     7
100
AcDbPolyline
 90
        2
 70
     0
 43
0.0
 10
64469.4618
 20
-113.3772
 10
64471.0785
 20
-113.3772
  0
LWPOLYLINE
  5
108D
330
1F
100
AcDbEntity
  8
LAYER4
  6
Continuous
 62
     7
100
AcDbPolyline
 90
        2
 70
     0
 43
0.0
 10
64485.6284
 20
-113.3772
 10
64487.245
 20
-113.3772
  0
LWPOLYLINE
  5
1091
330
1F
100
AcDbEntity
  8
LAYER4
  6
Continuous
 62
     7
100
AcDbPolyline
 90
        2
 70
     0
 43
0.0
 10
64501.7949
 20
-113.3772
 10
64503.4115
 20
-113.3772
  0
LWPOLYLINE
  5
1095
330
1F
100
AcDbEntity
  8
LAYER4
  6
Continuous
 62
     7
100
AcDbPolyline
 90
        2
 70
     0
 43
0.0
 10
64348.2129
 20
-105.294
 10
64349.8295
 20
-105.294
  0
LWPOLYLINE
  5
1099
330
1F
100
AcDbEntity
  8
LAYER4
  6
Continuous
 62
     7
100
AcDbPolyline
 90
        2
 70
     0
 43
0.0
 10
64364.3794
 20
-105.294
 10
64365.996
 20
-105.294
  0
LWPOLYLINE
  5
109D
330
1F
100
AcDbEntity
  8
LAYER4
  6
Continuous
 62
     7
100
AcDbPolyline
 90
        2
 70
     0
 43
0.0
 10
64380.5459
 20
-105.294
 10
64382.1626
 20
-105.294
  0
LWPOLYLINE
  5
10A1
330
1F
100
AcDbEntity
  8
LAYER4
  6
Continuous
 62
     7
100
AcDbPolyline
 90
        2
 70
     0
 43
0.0
 10
64396.7124
 20
-105.294
 10
64398.3291
 20
-105.294
  0
LWPOLYLINE
  5
10A5
330
1F
100
AcDbEntity
  8
LAYER4
  6
Continuous
 62
     7
100
AcDbPolyline
 90
        2
 70
     0
 43
0.0
 10
64412.879
 20
-105.294
 10
64414.4956
 20
-105.294
  0
LWPOLYLINE
  5
10A9
330
1F
100
AcDbEntity
  8
LAYER4
  6
Continuous
 62
     7
100
AcDbPolyline
 90
        2
 70
     0
 43
0.0
 10
64429.0455
 20
-105.294
 10
64430.6622
 20
-105.294
  0
LWPOLYLINE
  5
10AD
330
1F
100
AcDbEntity
  8
LAYER4
  6
Continuous
 62
     7
100
AcDbPolyline
 90
        2
 70
     0
 43
0.0
 10
64445.212
 20
-105.294
 10
64446.8287
 20
-105.294
  0
LWPOLYLINE
  5
10B1
330
1F
100
AcDbEntity
  8
LAYER4
  6
Continuous
 62
     7
100
AcDbPolyline
 90
        2
 70
     0
 43
0.0
 10
64461.3786
 20
-105.294
 10
64462.9952
 20
-105.294
  0
LWPOLYLINE
  5
10B5
330
1F
100
AcDbEntity
  8
LAYER4
  6
Continuous
 62
     7
100
AcDbPolyline
 90
        2
 70
     0
 43
0.0
 10
64477.5451
 20
-105.294
 10
64479.1617
 20
-105.294
  0
LWPOLYLINE
  5
10B9
330
1F
100
AcDbEntity
  8
LAYER4
  6
Continuous
 62
     7
100
AcDbPolyline
 90
        2
 70
     0
 43
0.0
 10
64493.7116
 20
-105.294
 10
64495.3283
 20
-105.294
  0
LWPOLYLINE
  5
10BD
330
1F
100
AcDbEntity
  8
LAYER4
  6
Continuous
 62
     7
100
AcDbPolyline
 90
        2
 70
     0
 43
0.0
 10
64146.1313
 20
-97.2107
 10
64147.7479
 20
-97.2107
  0
LWPOLYLINE
  5
10C1
330
1F
100
AcDbEntity
  8
LAYER4
  6
Continuous
 62
     7
100
AcDbPolyline
 90
        2
 70
     0
 43
0.0
 10
64162.2978
 20
-97.2107
 10
64163.9144
 20
-97.2107
  0
LWPOLYLINE
  5
10C5
330
1F
100
AcDbEntity
  8
LAYER4
  6
Continuous
 62
     7
100
AcDbPolyline
 90
        2
 70
     0
 43
0.0
 10
64178.4643
 20
-97.2107
 10
64180.081
 20
-97.2107
  0
LWPOLYLINE
  5
10C9
330
1F
100
AcDbEntity
  8
LAYER4
  6
Continuous
 62
     7
100
AcDbPolyline
 90
        2
 70
     0
 43
0.0
 10
64194.6308
 20
-97.2107
 10
64196.2475
 20
-97.2107
  0
LWPOLYLINE
  5
10CD
330
1F
100
AcDbEntity
  8
LAYER4
  6
Continuous
 62
     7
100
AcDbPolyline
 90
        2
 70
     0
 43
0.0
 10
64210.7974
 20
-97.2107
 10
64212.414
 20
-97.2107
  0
LWPOLYLINE
  5
10D1
330
1F
100
AcDbEntity
  8
LAYER4
  6
Continuous
 62
     7
100
AcDbPolyline
 90
        2
 70
     0
 43
0.0
 10
64226.9639
 20
-97.2107
 10
64228.5806
 20
-97.2107
  0
LWPOLYLINE
  5
10D5
330
1F
100
AcDbEntity
  8
LAYER4
  6
Continuous
 62
     7
100
AcDbPolyline
 90
        2
 70
     0
 43
0.0
 10
64243.1304
 20
-97.2107
 10
64244.7471
 20
-97.2107
  0
LWPOLYLINE
  5
10D9
330
1F
100
AcDbEntity
  8
LAYER4
  6
Continuous
 62
     7
100
AcDbPolyline
 90
        2
 70
     0
 43
0.0
 10
64259.297
 20
-97.2107
 10
64260.9136
 20
-97.2107
  0
LWPOLYLINE
  5
10DD
330
1F
100
AcDbEntity
  8
LAYER4
  6
Continuous
 62
     7
100
AcDbPolyline
 90
        2
 70
     0
 43
0.0
 10
64275.4635
 20
-97.2107
 10
64277.0801
 20
-97.2107
  0
LWPOLYLINE
  5
10E1
330
1F
100
AcDbEntity
  8
LAYER4
  6
Continuous
 62
     7
100
AcDbPolyline
 90
        2
 70
     0
 43
0.0
 10
64291.63
 20
-97.2107
 10
64293.2467
 20
-97.2107
  0
LWPOLYLINE
  5
10E5
330
1F
100
AcDbEntity
  8
LAYER4
  6
Continuous
 62
     7
100
AcDbPolyline
 90
        2
 70
     0
 43
0.0
 10
64340.1296
 20
-97.2107
 10
64341.7463
 20
-97.2107
  0
LWPOLYLINE
  5
10E9
330
1F
100
AcDbEntity
  8
LAYER4
  6
Continuous
 62
     7
100
AcDbPolyline
 90
        2
 70
     0
 43
0.0
 10
64356.2961
 20
-97.2107
 10
64357.9128
 20
-97.2107
  0
LWPOLYLINE
  5
10ED
330
1F
100
AcDbEntity
  8
LAYER4
  6
Continuous
 62
     7
100
AcDbPolyline
 90
        2
 70
     0
 43
0.0
 10
64372.4627
 20
-97.2107
 10
64374.0793
 20
-97.2107
  0
LWPOLYLINE
  5
10F1
330
1F
100
AcDbEntity
  8
LAYER4
  6
Continuous
 62
     7
100
AcDbPolyline
 90
        2
 70
     0
 43
0.0
 10
64388.6292
 20
-97.2107
 10
64390.2458
 20
-97.2107
  0
LWPOLYLINE
  5
10F5
330
1F
100
AcDbEntity
  8
LAYER4
  6
Continuous
 62
     7
100
AcDbPolyline
 90
        2
 70
     0
 43
0.0
 10
64404.7957
 20
-97.2107
 10
64406.4124
 20
-97.2107
  0
LWPOLYLINE
  5
10F9
330
1F
100
AcDbEntity
  8
LAYER4
  6
Continuous
 62
     7
100
AcDbPolyline
 90
        2
 70
     0
 43
0.0
 10
64420.9622
 20
-97.2107
 10
64422.5789
 20
-97.2107
  0
LWPOLYLINE
  5
10FD
330
1F
100
AcDbEntity
  8
LAYER4
  6
Continuous
 62
     7
100
AcDbPolyline
 90
        2
 70
     0
 43
0.0
 10
64437.1288
 20
-97.2107
 10
64438.7454
 20
-97.2107
  0
LWPOLYLINE
  5
1101
330
1F
100
AcDbEntity
  8
LAYER4
  6
Continuous
 62
     7
100
AcDbPolyline
 90
        2
 70
     0
 43
0.0
 10
64453.2953
 20
-97.2107
 10
64454.9119
 20
-97.2107
  0
LWPOLYLINE
  5
1105
330
1F
100
AcDbEntity
  8
LAYER4
  6
Continuous
 62
     7
100
AcDbPolyline
 90
        2
 70
     0
 43
0.0
 10
64469.4618
 20
-97.2107
 10
64471.0785
 20
-97.2107
  0
LWPOLYLINE
  5
1109
330
1F
100
AcDbEntity
  8
LAYER4
  6
Continuous
 62
     7
100
AcDbPolyline
 90
        2
 70
     0
 43
0.0
 10
64485.6284
 20
-97.2107
 10
64487.245
 20
-97.2107
  0
LWPOLYLINE
  5
110D
330
1F
100
AcDbEntity
  8
LAYER4
  6
Continuous
 62
     7
100
AcDbPolyline
 90
        2
 70
     0
 43
0.0
 10
64501.7949
 20
-97.2107
 10
64503.4115
 20
-97.2107
  0
LWPOLYLINE
  5
1111
330
1F
100
AcDbEntity
  8
LAYER4
  6
Continuous
 62
     7
100
AcDbPolyline
 90
        2
 70
     0
 43
0.0
 10
64138.723
 20
-89.1274
 10
64139.6647
 20
-89.1274
  0
LWPOLYLINE
  5
1115
330
1F
100
AcDbEntity
  8
LAYER4
  6
Continuous
 62
     7
100
AcDbPolyline
 90
        2
 70
     0
 43
0.0
 10
64154.2145
 20
-89.1274
 10
64155.8312
 20
-89.1274
  0
LWPOLYLINE
  5
1119
330
1F
100
AcDbEntity
  8
LAYER4
  6
Continuous
 62
     7
100
AcDbPolyline
 90
        2
 70
     0
 43
0.0
 10
64170.3811
 20
-89.1274
 10
64171.9977
 20
-89.1274
  0
LWPOLYLINE
  5
111D
330
1F
100
AcDbEntity
  8
LAYER4
  6
Continuous
 62
     7
100
AcDbPolyline
 90
        2
 70
     0
 43
0.0
 10
64186.5476
 20
-89.1274
 10
64188.1642
 20
-89.1274
  0
LWPOLYLINE
  5
1121
330
1F
100
AcDbEntity
  8
LAYER4
  6
Continuous
 62
     7
100
AcDbPolyline
 90
        2
 70
     0
 43
0.0
 10
64202.7141
 20
-89.1274
 10
64204.3308
 20
-89.1274
  0
LWPOLYLINE
  5
1125
330
1F
100
AcDbEntity
  8
LAYER4
  6
Continuous
 62
     7
100
AcDbPolyline
 90
        2
 70
     0
 43
0.0
 10
64218.8806
 20
-89.1274
 10
64220.4973
 20
-89.1274
  0
LWPOLYLINE
  5
1129
330
1F
100
AcDbEntity
  8
LAYER4
  6
Continuous
 62
     7
100
AcDbPolyline
 90
        2
 70
     0
 43
0.0
 10
64235.0472
 20
-89.1274
 10
64236.6638
 20
-89.1274
  0
LWPOLYLINE
  5
112D
330
1F
100
AcDbEntity
  8
LAYER4
  6
Continuous
 62
     7
100
AcDbPolyline
 90
        2
 70
     0
 43
0.0
 10
64251.2137
 20
-89.1274
 10
64252.8304
 20
-89.1274
  0
LWPOLYLINE
  5
1131
330
1F
100
AcDbEntity
  8
LAYER4
  6
Continuous
 62
     7
100
AcDbPolyline
 90
        2
 70
     0
 43
0.0
 10
64267.3802
 20
-89.1274
 10
64268.9969
 20
-89.1274
  0
LWPOLYLINE
  5
1135
330
1F
100
AcDbEntity
  8
LAYER4
  6
Continuous
 62
     7
100
AcDbPolyline
 90
        2
 70
     0
 43
0.0
 10
64283.5468
 20
-89.1274
 10
64285.1634
 20
-89.1274
  0
LWPOLYLINE
  5
1139
330
1F
100
AcDbEntity
  8
LAYER4
  6
Continuous
 62
     7
100
AcDbPolyline
 90
        2
 70
     0
 43
0.0
 10
64299.7133
 20
-89.1274
 10
64301.3299
 20
-89.1274
  0
LWPOLYLINE
  5
113D
330
1F
100
AcDbEntity
  8
LAYER4
  6
Continuous
 62
     7
100
AcDbPolyline
 90
        2
 70
     0
 43
0.0
 10
64315.8798
 20
-89.1274
 10
64317.4965
 20
-89.1274
  0
LWPOLYLINE
  5
1141
330
1F
100
AcDbEntity
  8
LAYER4
  6
Continuous
 62
     7
100
AcDbPolyline
 90
        2
 70
     0
 43
0.0
 10
64332.0463
 20
-89.1274
 10
64333.663
 20
-89.1274
  0
LWPOLYLINE
  5
1145
330
1F
100
AcDbEntity
  8
LAYER4
  6
Continuous
 62
     7
100
AcDbPolyline
 90
        2
 70
     0
 43
0.0
 10
64348.2129
 20
-89.1274
 10
64349.8295
 20
-89.1274
  0
LWPOLYLINE
  5
1149
330
1F
100
AcDbEntity
  8
LAYER4
  6
Continuous
 62
     7
100
AcDbPolyline
 90
        2
 70
     0
 43
0.0
 10
64364.3794
 20
-89.1274
 10
64365.996
 20
-89.1274
  0
LWPOLYLINE
  5
114D
330
1F
100
AcDbEntity
  8
LAYER4
  6
Continuous
 62
     7
100
AcDbPolyline
 90
        2
 70
     0
 43
0.0
 10
64380.5459
 20
-89.1274
 10
64382.1626
 20
-89.1274
  0
LWPOLYLINE
  5
1151
330
1F
100
AcDbEntity
  8
LAYER4
  6
Continuous
 62
     7
100
AcDbPolyline
 90
        2
 70
     0
 43
0.0
 10
64396.7124
 20
-89.1274
 10
64398.3291
 20
-89.1274
  0
LWPOLYLINE
  5
1155
330
1F
100
AcDbEntity
  8
LAYER4
  6
Continuous
 62
     7
100
AcDbPolyline
 90
        2
 70
     0
 43
0.0
 10
64412.879
 20
-89.1274
 10
64414.4956
 20
-89.1274
  0
LWPOLYLINE
  5
1159
330
1F
100
AcDbEntity
  8
LAYER4
  6
Continuous
 62
     7
100
AcDbPolyline
 90
        2
 70
     0
 43
0.0
 10
64429.0455
 20
-89.1274
 10
64430.6622
 20
-89.1274
  0
LWPOLYLINE
  5
115D
330
1F
100
AcDbEntity
  8
LAYER4
  6
Continuous
 62
     7
100
AcDbPolyline
 90
        2
 70
     0
 43
0.0
 10
64445.212
 20
-89.1274
 10
64446.8287
 20
-89.1274
  0
LWPOLYLINE
  5
1161
330
1F
100
AcDbEntity
  8
LAYER4
  6
Continuous
 62
     7
100
AcDbPolyline
 90
        2
 70
     0
 43
0.0
 10
64461.3786
 20
-89.1274
 10
64462.9952
 20
-89.1274
  0
LWPOLYLINE
  5
1165
330
1F
100
AcDbEntity
  8
LAYER4
  6
Continuous
 62
     7
100
AcDbPolyline
 90
        2
 70
     0
 43
0.0
 10
64477.5451
 20
-89.1274
 10
64479.1617
 20
-89.1274
  0
LWPOLYLINE
  5
1169
330
1F
100
AcDbEntity
  8
LAYER4
  6
Continuous
 62
     7
100
AcDbPolyline
 90
        2
 70
     0
 43
0.0
 10
64493.7116
 20
-89.1274
 10
64495.3283
 20
-89.1274
  0
LWPOLYLINE
  5
116D
330
1F
100
AcDbEntity
  8
LAYER4
  6
Continuous
 62
     7
100
AcDbPolyline
 90
        2
 70
     0
 43
0.0
 10
64146.1313
 20
-81.0442
 10
64147.7479
 20
-81.0442
  0
LWPOLYLINE
  5
1171
330
1F
100
AcDbEntity
  8
LAYER4
  6
Continuous
 62
     7
100
AcDbPolyline
 90
        2
 70
     0
 43
0.0
 10
64162.2978
 20
-81.0442
 10
64163.9144
 20
-81.0442
  0
LWPOLYLINE
  5
1175
330
1F
100
AcDbEntity
  8
LAYER4
  6
Continuous
 62
     7
100
AcDbPolyline
 90
        2
 70
     0
 43
0.0
 10
64178.4643
 20
-81.0442
 10
64180.081
 20
-81.0442
  0
LWPOLYLINE
  5
1179
330
1F
100
AcDbEntity
  8
LAYER4
  6
Continuous
 62
     7
100
AcDbPolyline
 90
        2
 70
     0
 43
0.0
 10
64194.6308
 20
-81.0442
 10
64196.2475
 20
-81.0442
  0
LWPOLYLINE
  5
117D
330
1F
100
AcDbEntity
  8
LAYER4
  6
Continuous
 62
     7
100
AcDbPolyline
 90
        2
 70
     0
 43
0.0
 10
64210.7974
 20
-81.0442
 10
64212.414
 20
-81.0442
  0
LWPOLYLINE
  5
1181
330
1F
100
AcDbEntity
  8
LAYER4
  6
Continuous
 62
     7
100
AcDbPolyline
 90
        2
 70
     0
 43
0.0
 10
64226.9639
 20
-81.0442
 10
64228.5806
 20
-81.0442
  0
LWPOLYLINE
  5
1185
330
1F
100
AcDbEntity
  8
LAYER4
  6
Continuous
 62
     7
100
AcDbPolyline
 90
        2
 70
     0
 43
0.0
 10
64243.1304
 20
-81.0442
 10
64244.7471
 20
-81.0442
  0
LWPOLYLINE
  5
1189
330
1F
100
AcDbEntity
  8
LAYER4
  6
Continuous
 62
     7
100
AcDbPolyline
 90
        2
 70
     0
 43
0.0
 10
64259.297
 20
-81.0442
 10
64260.9136
 20
-81.0442
  0
LWPOLYLINE
  5
118D
330
1F
100
AcDbEntity
  8
LAYER4
  6
Continuous
 62
     7
100
AcDbPolyline
 90
        2
 70
     0
 43
0.0
 10
64275.4635
 20
-81.0442
 10
64277.0801
 20
-81.0442
  0
LWPOLYLINE
  5
1191
330
1F
100
AcDbEntity
  8
LAYER4
  6
Continuous
 62
     7
100
AcDbPolyline
 90
        2
 70
     0
 43
0.0
 10
64291.63
 20
-81.0442
 10
64293.2467
 20
-81.0442
  0
LWPOLYLINE
  5
1195
330
1F
100
AcDbEntity
  8
LAYER4
  6
Continuous
 62
     7
100
AcDbPolyline
 90
        2
 70
     0
 43
0.0
 10
64307.7965
 20
-81.0442
 10
64309.4132
 20
-81.0442
  0
LWPOLYLINE
  5
1199
330
1F
100
AcDbEntity
  8
LAYER4
  6
Continuous
 62
     7
100
AcDbPolyline
 90
        2
 70
     0
 43
0.0
 10
64323.9631
 20
-81.0442
 10
64325.5797
 20
-81.0442
  0
LWPOLYLINE
  5
119D
330
1F
100
AcDbEntity
  8
LAYER4
  6
Continuous
 62
     7
100
AcDbPolyline
 90
        2
 70
     0
 43
0.0
 10
64340.1296
 20
-81.0442
 10
64341.7463
 20
-81.0442
  0
LWPOLYLINE
  5
11A1
330
1F
100
AcDbEntity
  8
LAYER4
  6
Continuous
 62
     7
100
AcDbPolyline
 90
        2
 70
     0
 43
0.0
 10
64356.2961
 20
-81.0442
 10
64357.9128
 20
-81.0442
  0
LWPOLYLINE
  5
11A5
330
1F
100
AcDbEntity
  8
LAYER4
  6
Continuous
 62
     7
100
AcDbPolyline
 90
        2
 70
     0
 43
0.0
 10
64372.4627
 20
-81.0442
 10
64374.0793
 20
-81.0442
  0
LWPOLYLINE
  5
11A9
330
1F
100
AcDbEntity
  8
LAYER4
  6
Continuous
 62
     7
100
AcDbPolyline
 90
        2
 70
     0
 43
0.0
 10
64388.6292
 20
-81.0442
 10
64390.2458
 20
-81.0442
  0
LWPOLYLINE
  5
11AD
330
1F
100
AcDbEntity
  8
LAYER4
  6
Continuous
 62
     7
100
AcDbPolyline
 90
        2
 70
     0
 43
0.0
 10
64404.7957
 20
-81.0442
 10
64406.4124
 20
-81.0442
  0
LWPOLYLINE
  5
11B1
330
1F
100
AcDbEntity
  8
LAYER4
  6
Continuous
 62
     7
100
AcDbPolyline
 90
        2
 70
     0
 43
0.0
 10
64420.9622
 20
-81.0442
 10
64422.5789
 20
-81.0442
  0
LWPOLYLINE
  5
11B5
330
1F
100
AcDbEntity
  8
LAYER4
  6
Continuous
 62
     7
100
AcDbPolyline
 90
        2
 70
     0
 43
0.0
 10
64437.1288
 20
-81.0442
 10
64438.7454
 20
-81.0442
  0
LWPOLYLINE
  5
11B9
330
1F
100
AcDbEntity
  8
LAYER4
  6
Continuous
 62
     7
100
AcDbPolyline
 90
        2
 70
     0
 43
0.0
 10
64453.2953
 20
-81.0442
 10
64454.9119
 20
-81.0442
  0
LWPOLYLINE
  5
11BD
330
1F
100
AcDbEntity
  8
LAYER4
  6
Continuous
 62
     7
100
AcDbPolyline
 90
        2
 70
     0
 43
0.0
 10
64469.4618
 20
-81.0442
 10
64471.0785
 20
-81.0442
  0
LWPOLYLINE
  5
11C1
330
1F
100
AcDbEntity
  8
LAYER4
  6
Continuous
 62
     7
100
AcDbPolyline
 90
        2
 70
     0
 43
0.0
 10
64485.6284
 20
-81.0442
 10
64487.245
 20
-81.0442
  0
LWPOLYLINE
  5
11C5
330
1F
100
AcDbEntity
  8
LAYER4
  6
Continuous
 62
     7
100
AcDbPolyline
 90
        2
 70
     0
 43
0.0
 10
64501.7949
 20
-81.0442
 10
64503.4115
 20
-81.0442
  0
LWPOLYLINE
  5
11C9
330
1F
100
AcDbEntity
  8
LAYER4
  6
Continuous
 62
     7
100
AcDbPolyline
 90
        2
 70
     0
 43
0.0
 10
64139.0625
 20
-72.9609
 10
64139.6647
 20
-72.9609
  0
LWPOLYLINE
  5
11CD
330
1F
100
AcDbEntity
  8
LAYER4
  6
Continuous
 62
     7
100
AcDbPolyline
 90
        2
 70
     0
 43
0.0
 10
64154.2145
 20
-72.9609
 10
64155.8312
 20
-72.9609
  0
LWPOLYLINE
  5
11D1
330
1F
100
AcDbEntity
  8
LAYER4
  6
Continuous
 62
     7
100
AcDbPolyline
 90
        2
 70
     0
 43
0.0
 10
64170.3811
 20
-72.9609
 10
64171.9977
 20
-72.9609
  0
LWPOLYLINE
  5
11D5
330
1F
100
AcDbEntity
  8
LAYER4
  6
Continuous
 62
     7
100
AcDbPolyline
 90
        2
 70
     0
 43
0.0
 10
64186.5476
 20
-72.9609
 10
64188.1642
 20
-72.9609
  0
LWPOLYLINE
  5
11D9
330
1F
100
AcDbEntity
  8
LAYER4
  6
Continuous
 62
     7
100
AcDbPolyline
 90
        2
 70
     0
 43
0.0
 10
64202.7141
 20
-72.9609
 10
64204.3308
 20
-72.9609
  0
LWPOLYLINE
  5
11DD
330
1F
100
AcDbEntity
  8
LAYER4
  6
Continuous
 62
     7
100
AcDbPolyline
 90
        2
 70
     0
 43
0.0
 10
64218.8806
 20
-72.9609
 10
64220.4973
 20
-72.9609
  0
LWPOLYLINE
  5
11E1
330
1F
100
AcDbEntity
  8
LAYER4
  6
Continuous
 62
     7
100
AcDbPolyline
 90
        2
 70
     0
 43
0.0
 10
64235.0472
 20
-72.9609
 10
64236.6638
 20
-72.9609
  0
LWPOLYLINE
  5
11E5
330
1F
100
AcDbEntity
  8
LAYER4
  6
Continuous
 62
     7
100
AcDbPolyline
 90
        2
 70
     0
 43
0.0
 10
64251.2137
 20
-72.9609
 10
64252.8304
 20
-72.9609
  0
LWPOLYLINE
  5
11E9
330
1F
100
AcDbEntity
  8
LAYER4
  6
Continuous
 62
     7
100
AcDbPolyline
 90
        2
 70
     0
 43
0.0
 10
64267.3802
 20
-72.9609
 10
64268.9969
 20
-72.9609
  0
LWPOLYLINE
  5
11ED
330
1F
100
AcDbEntity
  8
LAYER4
  6
Continuous
 62
     7
100
AcDbPolyline
 90
        2
 70
     0
 43
0.0
 10
64283.5468
 20
-72.9609
 10
64285.1634
 20
-72.9609
  0
LWPOLYLINE
  5
11F1
330
1F
100
AcDbEntity
  8
LAYER4
  6
Continuous
 62
     7
100
AcDbPolyline
 90
        2
 70
     0
 43
0.0
 10
64299.7133
 20
-72.9609
 10
64301.3299
 20
-72.9609
  0
LWPOLYLINE
  5
11F5
330
1F
100
AcDbEntity
  8
LAYER4
  6
Continuous
 62
     7
100
AcDbPolyline
 90
        2
 70
     0
 43
0.0
 10
64315.8798
 20
-72.9609
 10
64317.4965
 20
-72.9609
  0
LWPOLYLINE
  5
11F9
330
1F
100
AcDbEntity
  8
LAYER4
  6
Continuous
 62
     7
100
AcDbPolyline
 90
        2
 70
     0
 43
0.0
 10
64332.0463
 20
-72.9609
 10
64333.663
 20
-72.9609
  0
LWPOLYLINE
  5
11FD
330
1F
100
AcDbEntity
  8
LAYER4
  6
Continuous
 62
     7
100
AcDbPolyline
 90
        2
 70
     0
 43
0.0
 10
64348.2129
 20
-72.9609
 10
64349.8295
 20
-72.9609
  0
LWPOLYLINE
  5
1201
330
1F
100
AcDbEntity
  8
LAYER4
  6
Continuous
 62
     7
100
AcDbPolyline
 90
        2
 70
     0
 43
0.0
 10
64364.3794
 20
-72.9609
 10
64365.996
 20
-72.9609
  0
LWPOLYLINE
  5
1205
330
1F
100
AcDbEntity
  8
LAYER4
  6
Continuous
 62
     7
100
AcDbPolyline
 90
        2
 70
     0
 43
0.0
 10
64380.5459
 20
-72.9609
 10
64382.1626
 20
-72.9609
  0
LWPOLYLINE
  5
1209
330
1F
100
AcDbEntity
  8
LAYER4
  6
Continuous
 62
     7
100
AcDbPolyline
 90
        2
 70
     0
 43
0.0
 10
64396.7124
 20
-72.9609
 10
64398.3291
 20
-72.9609
  0
LWPOLYLINE
  5
120D
330
1F
100
AcDbEntity
  8
LAYER4
  6
Continuous
 62
     7
100
AcDbPolyline
 90
        2
 70
     0
 43
0.0
 10
64412.879
 20
-72.9609
 10
64414.4956
 20
-72.9609
  0
LWPOLYLINE
  5
1211
330
1F
100
AcDbEntity
  8
LAYER4
  6
Continuous
 62
     7
100
AcDbPolyline
 90
        2
 70
     0
 43
0.0
 10
64429.0455
 20
-72.9609
 10
64430.6622
 20
-72.9609
  0
LWPOLYLINE
  5
1215
330
1F
100
AcDbEntity
  8
LAYER4
  6
Continuous
 62
     7
100
AcDbPolyline
 90
        2
 70
     0
 43
0.0
 10
64445.212
 20
-72.9609
 10
64446.8287
 20
-72.9609
  0
LWPOLYLINE
  5
1219
330
1F
100
AcDbEntity
  8
LAYER4
  6
Continuous
 62
     7
100
AcDbPolyline
 90
        2
 70
     0
 43
0.0
 10
64461.3786
 20
-72.9609
 10
64462.9952
 20
-72.9609
  0
LWPOLYLINE
  5
121D
330
1F
100
AcDbEntity
  8
LAYER4
  6
Continuous
 62
     7
100
AcDbPolyline
 90
        2
 70
     0
 43
0.0
 10
64477.5451
 20
-72.9609
 10
64479.1617
 20
-72.9609
  0
LWPOLYLINE
  5
1221
330
1F
100
AcDbEntity
  8
LAYER4
  6
Continuous
 62
     7
100
AcDbPolyline
 90
        2
 70
     0
 43
0.0
 10
64493.7116
 20
-72.9609
 10
64495.3283
 20
-72.9609
  0
LWPOLYLINE
  5
1225
330
1F
100
AcDbEntity
  8
LAYER4
  6
Continuous
 62
     7
100
AcDbPolyline
 90
        2
 70
     0
 43
0.0
 10
64146.1313
 20
-64.8776
 10
64147.7479
 20
-64.8776
  0
LWPOLYLINE
  5
1229
330
1F
100
AcDbEntity
  8
LAYER4
  6
Continuous
 62
     7
100
AcDbPolyline
 90
        2
 70
     0
 43
0.0
 10
64162.2978
 20
-64.8776
 10
64163.9144
 20
-64.8776
  0
LWPOLYLINE
  5
122D
330
1F
100
AcDbEntity
  8
LAYER4
  6
Continuous
 62
     7
100
AcDbPolyline
 90
        2
 70
     0
 43
0.0
 10
64178.4643
 20
-64.8776
 10
64180.081
 20
-64.8776
  0
LWPOLYLINE
  5
1231
330
1F
100
AcDbEntity
  8
LAYER4
  6
Continuous
 62
     7
100
AcDbPolyline
 90
        2
 70
     0
 43
0.0
 10
64194.6308
 20
-64.8776
 10
64196.2475
 20
-64.8776
  0
LWPOLYLINE
  5
1235
330
1F
100
AcDbEntity
  8
LAYER4
  6
Continuous
 62
     7
100
AcDbPolyline
 90
        2
 70
     0
 43
0.0
 10
64210.7974
 20
-64.8776
 10
64212.414
 20
-64.8776
  0
LWPOLYLINE
  5
1239
330
1F
100
AcDbEntity
  8
LAYER4
  6
Continuous
 62
     7
100
AcDbPolyline
 90
        2
 70
     0
 43
0.0
 10
64226.9639
 20
-64.8776
 10
64228.5806
 20
-64.8776
  0
LWPOLYLINE
  5
123D
330
1F
100
AcDbEntity
  8
LAYER4
  6
Continuous
 62
     7
100
AcDbPolyline
 90
        2
 70
     0
 43
0.0
 10
64243.1304
 20
-64.8776
 10
64244.7471
 20
-64.8776
  0
LWPOLYLINE
  5
1241
330
1F
100
AcDbEntity
  8
LAYER4
  6
Continuous
 62
     7
100
AcDbPolyline
 90
        2
 70
     0
 43
0.0
 10
64259.297
 20
-64.8776
 10
64260.9136
 20
-64.8776
  0
LWPOLYLINE
  5
1245
330
1F
100
AcDbEntity
  8
LAYER4
  6
Continuous
 62
     7
100
AcDbPolyline
 90
        2
 70
     0
 43
0.0
 10
64275.4635
 20
-64.8776
 10
64277.0801
 20
-64.8776
  0
LWPOLYLINE
  5
1249
330
1F
100
AcDbEntity
  8
LAYER4
  6
Continuous
 62
     7
100
AcDbPolyline
 90
        2
 70
     0
 43
0.0
 10
64291.63
 20
-64.8776
 10
64293.2467
 20
-64.8776
  0
LWPOLYLINE
  5
124D
330
1F
100
AcDbEntity
  8
LAYER4
  6
Continuous
 62
     7
100
AcDbPolyline
 90
        2
 70
     0
 43
0.0
 10
64307.7965
 20
-64.8776
 10
64309.4132
 20
-64.8776
  0
LWPOLYLINE
  5
1251
330
1F
100
AcDbEntity
  8
LAYER4
  6
Continuous
 62
     7
100
AcDbPolyline
 90
        2
 70
     0
 43
0.0
 10
64323.9631
 20
-64.8776
 10
64325.5797
 20
-64.8776
  0
LWPOLYLINE
  5
1255
330
1F
100
AcDbEntity
  8
LAYER4
  6
Continuous
 62
     7
100
AcDbPolyline
 90
        2
 70
     0
 43
0.0
 10
64340.1296
 20
-64.8776
 10
64341.7463
 20
-64.8776
  0
LWPOLYLINE
  5
1259
330
1F
100
AcDbEntity
  8
LAYER4
  6
Continuous
 62
     7
100
AcDbPolyline
 90
        2
 70
     0
 43
0.0
 10
64356.2961
 20
-64.8776
 10
64357.9128
 20
-64.8776
  0
LWPOLYLINE
  5
125D
330
1F
100
AcDbEntity
  8
LAYER4
  6
Continuous
 62
     7
100
AcDbPolyline
 90
        2
 70
     0
 43
0.0
 10
64372.4627
 20
-64.8776
 10
64374.0793
 20
-64.8776
  0
LWPOLYLINE
  5
1261
330
1F
100
AcDbEntity
  8
LAYER4
  6
Continuous
 62
     7
100
AcDbPolyline
 90
        2
 70
     0
 43
0.0
 10
64388.6292
 20
-64.8776
 10
64390.2458
 20
-64.8776
  0
LWPOLYLINE
  5
1265
330
1F
100
AcDbEntity
  8
LAYER4
  6
Continuous
 62
     7
100
AcDbPolyline
 90
        2
 70
     0
 43
0.0
 10
64404.7957
 20
-64.8776
 10
64406.4124
 20
-64.8776
  0
LWPOLYLINE
  5
1269
330
1F
100
AcDbEntity
  8
LAYER4
  6
Continuous
 62
     7
100
AcDbPolyline
 90
        2
 70
     0
 43
0.0
 10
64420.9622
 20
-64.8776
 10
64422.5789
 20
-64.8776
  0
LWPOLYLINE
  5
126D
330
1F
100
AcDbEntity
  8
LAYER4
  6
Continuous
 62
     7
100
AcDbPolyline
 90
        2
 70
     0
 43
0.0
 10
64437.1288
 20
-64.8776
 10
64438.7454
 20
-64.8776
  0
LWPOLYLINE
  5
1271
330
1F
100
AcDbEntity
  8
LAYER4
  6
Continuous
 62
     7
100
AcDbPolyline
 90
        2
 70
     0
 43
0.0
 10
64453.2953
 20
-64.8776
 10
64454.9119
 20
-64.8776
  0
LWPOLYLINE
  5
1275
330
1F
100
AcDbEntity
  8
LAYER4
  6
Continuous
 62
     7
100
AcDbPolyline
 90
        2
 70
     0
 43
0.0
 10
64469.4618
 20
-64.8776
 10
64471.0785
 20
-64.8776
  0
LWPOLYLINE
  5
1279
330
1F
100
AcDbEntity
  8
LAYER4
  6
Continuous
 62
     7
100
AcDbPolyline
 90
        2
 70
     0
 43
0.0
 10
64485.6284
 20
-64.8776
 10
64487.245
 20
-64.8776
  0
LWPOLYLINE
  5
127D
330
1F
100
AcDbEntity
  8
LAYER4
  6
Continuous
 62
     7
100
AcDbPolyline
 90
        2
 70
     0
 43
0.0
 10
64501.7949
 20
-64.8776
 10
64503.4115
 20
-64.8776
  0
LWPOLYLINE
  5
1281
330
1F
100
AcDbEntity
  8
LAYER4
  6
Continuous
 62
     7
100
AcDbPolyline
 90
        2
 70
     0
 43
0.0
 10
64139.4019
 20
-56.7944
 10
64139.6647
 20
-56.7944
  0
LWPOLYLINE
  5
1285
330
1F
100
AcDbEntity
  8
LAYER4
  6
Continuous
 62
     7
100
AcDbPolyline
 90
        2
 70
     0
 43
0.0
 10
64154.2145
 20
-56.7944
 10
64155.8312
 20
-56.7944
  0
LWPOLYLINE
  5
1289
330
1F
100
AcDbEntity
  8
LAYER4
  6
Continuous
 62
     7
100
AcDbPolyline
 90
        2
 70
     0
 43
0.0
 10
64170.3811
 20
-56.7944
 10
64171.9977
 20
-56.7944
  0
LWPOLYLINE
  5
128D
330
1F
100
AcDbEntity
  8
LAYER4
  6
Continuous
 62
     7
100
AcDbPolyline
 90
        2
 70
     0
 43
0.0
 10
64186.5476
 20
-56.7944
 10
64188.1642
 20
-56.7944
  0
LWPOLYLINE
  5
1291
330
1F
100
AcDbEntity
  8
LAYER4
  6
Continuous
 62
     7
100
AcDbPolyline
 90
        2
 70
     0
 43
0.0
 10
64202.7141
 20
-56.7944
 10
64204.3308
 20
-56.7944
  0
LWPOLYLINE
  5
1295
330
1F
100
AcDbEntity
  8
LAYER4
  6
Continuous
 62
     7
100
AcDbPolyline
 90
        2
 70
     0
 43
0.0
 10
64218.8806
 20
-56.7944
 10
64220.4973
 20
-56.7944
  0
LWPOLYLINE
  5
1299
330
1F
100
AcDbEntity
  8
LAYER4
  6
Continuous
 62
     7
100
AcDbPolyline
 90
        2
 70
     0
 43
0.0
 10
64235.0472
 20
-56.7944
 10
64236.6638
 20
-56.7944
  0
LWPOLYLINE
  5
129D
330
1F
100
AcDbEntity
  8
LAYER4
  6
Continuous
 62
     7
100
AcDbPolyline
 90
        2
 70
     0
 43
0.0
 10
64251.2137
 20
-56.7944
 10
64252.8304
 20
-56.7944
  0
LWPOLYLINE
  5
12A1
330
1F
100
AcDbEntity
  8
LAYER4
  6
Continuous
 62
     7
100
AcDbPolyline
 90
        2
 70
     0
 43
0.0
 10
64267.3802
 20
-56.7944
 10
64268.9969
 20
-56.7944
  0
LWPOLYLINE
  5
12A5
330
1F
100
AcDbEntity
  8
LAYER4
  6
Continuous
 62
     7
100
AcDbPolyline
 90
        2
 70
     0
 43
0.0
 10
64283.5468
 20
-56.7944
 10
64285.1634
 20
-56.7944
  0
LWPOLYLINE
  5
12A9
330
1F
100
AcDbEntity
  8
LAYER4
  6
Continuous
 62
     7
100
AcDbPolyline
 90
        2
 70
     0
 43
0.0
 10
64299.7133
 20
-56.7944
 10
64301.3299
 20
-56.7944
  0
LWPOLYLINE
  5
12AD
330
1F
100
AcDbEntity
  8
LAYER4
  6
Continuous
 62
     7
100
AcDbPolyline
 90
        2
 70
     0
 43
0.0
 10
64315.8798
 20
-56.7944
 10
64317.4965
 20
-56.7944
  0
LWPOLYLINE
  5
12B1
330
1F
100
AcDbEntity
  8
LAYER4
  6
Continuous
 62
     7
100
AcDbPolyline
 90
        2
 70
     0
 43
0.0
 10
64332.0463
 20
-56.7944
 10
64333.663
 20
-56.7944
  0
LWPOLYLINE
  5
12B5
330
1F
100
AcDbEntity
  8
LAYER4
  6
Continuous
 62
     7
100
AcDbPolyline
 90
        2
 70
     0
 43
0.0
 10
64348.2129
 20
-56.7944
 10
64349.8295
 20
-56.7944
  0
LWPOLYLINE
  5
12B9
330
1F
100
AcDbEntity
  8
LAYER4
  6
Continuous
 62
     7
100
AcDbPolyline
 90
        2
 70
     0
 43
0.0
 10
64364.3794
 20
-56.7944
 10
64365.996
 20
-56.7944
  0
LWPOLYLINE
  5
12BD
330
1F
100
AcDbEntity
  8
LAYER4
  6
Continuous
 62
     7
100
AcDbPolyline
 90
        2
 70
     0
 43
0.0
 10
64380.5459
 20
-56.7944
 10
64382.1626
 20
-56.7944
  0
LWPOLYLINE
  5
12C1
330
1F
100
AcDbEntity
  8
LAYER4
  6
Continuous
 62
     7
100
AcDbPolyline
 90
        2
 70
     0
 43
0.0
 10
64396.7124
 20
-56.7944
 10
64398.3291
 20
-56.7944
  0
LWPOLYLINE
  5
12C5
330
1F
100
AcDbEntity
  8
LAYER4
  6
Continuous
 62
     7
100
AcDbPolyline
 90
        2
 70
     0
 43
0.0
 10
64412.879
 20
-56.7944
 10
64414.4956
 20
-56.7944
  0
LWPOLYLINE
  5
12C9
330
1F
100
AcDbEntity
  8
LAYER4
  6
Continuous
 62
     7
100
AcDbPolyline
 90
        2
 70
     0
 43
0.0
 10
64429.0455
 20
-56.7944
 10
64430.6622
 20
-56.7944
  0
LWPOLYLINE
  5
12CD
330
1F
100
AcDbEntity
  8
LAYER4
  6
Continuous
 62
     7
100
AcDbPolyline
 90
        2
 70
     0
 43
0.0
 10
64445.212
 20
-56.7944
 10
64446.8287
 20
-56.7944
  0
LWPOLYLINE
  5
12D1
330
1F
100
AcDbEntity
  8
LAYER4
  6
Continuous
 62
     7
100
AcDbPolyline
 90
        2
 70
     0
 43
0.0
 10
64461.3786
 20
-56.7944
 10
64462.9952
 20
-56.7944
  0
LWPOLYLINE
  5
12D5
330
1F
100
AcDbEntity
  8
LAYER4
  6
Continuous
 62
     7
100
AcDbPolyline
 90
        2
 70
     0
 43
0.0
 10
64477.5451
 20
-56.7944
 10
64479.1617
 20
-56.7944
  0
LWPOLYLINE
  5
12D9
330
1F
100
AcDbEntity
  8
LAYER4
  6
Continuous
 62
     7
100
AcDbPolyline
 90
        2
 70
     0
 43
0.0
 10
64493.7116
 20
-56.7944
 10
64495.3283
 20
-56.7944
  0
LWPOLYLINE
  5
12DD
330
1F
100
AcDbEntity
  8
LAYER4
  6
Continuous
 62
     7
100
AcDbPolyline
 90
        2
 70
     0
 43
0.0
 10
64139.4747
 20
-121.4605
 10
64139.6647
 20
-121.4605
  0
LWPOLYLINE
  5
12E1
330
1F
100
AcDbEntity
  8
LAYER4
  6
Continuous
 62
     7
100
AcDbPolyline
 90
        2
 70
     0
 43
0.0
 10
64154.2145
 20
-121.4605
 10
64155.8312
 20
-121.4605
  0
LWPOLYLINE
  5
12E5
330
1F
100
AcDbEntity
  8
LAYER4
  6
Continuous
 62
     7
100
AcDbPolyline
 90
        2
 70
     0
 43
0.0
 10
64170.3811
 20
-121.4605
 10
64171.9977
 20
-121.4605
  0
LWPOLYLINE
  5
12E9
330
1F
100
AcDbEntity
  8
LAYER4
  6
Continuous
 62
     7
100
AcDbPolyline
 90
        2
 70
     0
 43
0.0
 10
64186.5476
 20
-121.4605
 10
64188.1642
 20
-121.4605
  0
LWPOLYLINE
  5
12ED
330
1F
100
AcDbEntity
  8
LAYER4
  6
Continuous
 62
     7
100
AcDbPolyline
 90
        2
 70
     0
 43
0.0
 10
64202.7141
 20
-121.4605
 10
64204.3308
 20
-121.4605
  0
LWPOLYLINE
  5
12F1
330
1F
100
AcDbEntity
  8
LAYER4
  6
Continuous
 62
     7
100
AcDbPolyline
 90
        2
 70
     0
 43
0.0
 10
64218.8806
 20
-121.4605
 10
64220.4973
 20
-121.4605
  0
LWPOLYLINE
  5
12F5
330
1F
100
AcDbEntity
  8
LAYER4
  6
Continuous
 62
     7
100
AcDbPolyline
 90
        2
 70
     0
 43
0.0
 10
64235.0472
 20
-121.4605
 10
64236.6638
 20
-121.4605
  0
LWPOLYLINE
  5
12F9
330
1F
100
AcDbEntity
  8
LAYER4
  6
Continuous
 62
     7
100
AcDbPolyline
 90
        2
 70
     0
 43
0.0
 10
64251.2137
 20
-121.4605
 10
64252.8304
 20
-121.4605
  0
LWPOLYLINE
  5
12FD
330
1F
100
AcDbEntity
  8
LAYER4
  6
Continuous
 62
     7
100
AcDbPolyline
 90
        2
 70
     0
 43
0.0
 10
64267.3802
 20
-121.4605
 10
64268.9969
 20
-121.4605
  0
LWPOLYLINE
  5
1301
330
1F
100
AcDbEntity
  8
LAYER4
  6
Continuous
 62
     7
100
AcDbPolyline
 90
        2
 70
     0
 43
0.0
 10
64283.5468
 20
-121.4605
 10
64285.1634
 20
-121.4605
  0
LWPOLYLINE
  5
1305
330
1F
100
AcDbEntity
  8
LAYER4
  6
Continuous
 62
     7
100
AcDbPolyline
 90
        2
 70
     0
 43
0.0
 10
64299.7133
 20
-121.4605
 10
64300.4771
 20
-121.4605
  0
LWPOLYLINE
  5
1309
330
1F
100
AcDbEntity
  8
LAYER4
  6
Continuous
 62
     7
100
AcDbPolyline
 90
        2
 70
     0
 43
0.0
 10
64348.2129
 20
-121.4605
 10
64349.8295
 20
-121.4605
  0
LWPOLYLINE
  5
130D
330
1F
100
AcDbEntity
  8
LAYER4
  6
Continuous
 62
     7
100
AcDbPolyline
 90
        2
 70
     0
 43
0.0
 10
64364.3794
 20
-121.4605
 10
64365.996
 20
-121.4605
  0
LWPOLYLINE
  5
1311
330
1F
100
AcDbEntity
  8
LAYER4
  6
Continuous
 62
     7
100
AcDbPolyline
 90
        2
 70
     0
 43
0.0
 10
64380.5459
 20
-121.4605
 10
64382.1626
 20
-121.4605
  0
LWPOLYLINE
  5
1315
330
1F
100
AcDbEntity
  8
LAYER4
  6
Continuous
 62
     7
100
AcDbPolyline
 90
        2
 70
     0
 43
0.0
 10
64396.7124
 20
-121.4605
 10
64398.3291
 20
-121.4605
  0
LWPOLYLINE
  5
1319
330
1F
100
AcDbEntity
  8
LAYER4
  6
Continuous
 62
     7
100
AcDbPolyline
 90
        2
 70
     0
 43
0.0
 10
64412.879
 20
-121.4605
 10
64414.4956
 20
-121.4605
  0
LWPOLYLINE
  5
131D
330
1F
100
AcDbEntity
  8
LAYER4
  6
Continuous
 62
     7
100
AcDbPolyline
 90
        2
 70
     0
 43
0.0
 10
64429.0455
 20
-121.4605
 10
64430.6622
 20
-121.4605
  0
LWPOLYLINE
  5
1321
330
1F
100
AcDbEntity
  8
LAYER4
  6
Continuous
 62
     7
100
AcDbPolyline
 90
        2
 70
     0
 43
0.0
 10
64445.212
 20
-121.4605
 10
64446.8287
 20
-121.4605
  0
LWPOLYLINE
  5
1325
330
1F
100
AcDbEntity
  8
LAYER4
  6
Continuous
 62
     7
100
AcDbPolyline
 90
        2
 70
     0
 43
0.0
 10
64461.3786
 20
-121.4605
 10
64462.9952
 20
-121.4605
  0
LWPOLYLINE
  5
1329
330
1F
100
AcDbEntity
  8
LAYER4
  6
Continuous
 62
     7
100
AcDbPolyline
 90
        2
 70
     0
 43
0.0
 10
64477.5451
 20
-121.4605
 10
64479.1617
 20
-121.4605
  0
LWPOLYLINE
  5
132D
330
1F
100
AcDbEntity
  8
LAYER4
  6
Continuous
 62
     7
100
AcDbPolyline
 90
        2
 70
     0
 43
0.0
 10
64493.7116
 20
-121.4605
 10
64495.3283
 20
-121.4605
  0
LWPOLYLINE
  5
1331
330
1F
100
AcDbEntity
  8
LAYER4
  6
Continuous
 62
     7
100
AcDbPolyline
 90
        2
 70
     0
 43
0.0
 10
64146.1313
 20
-129.5438
 10
64147.7479
 20
-129.5438
  0
LWPOLYLINE
  5
1335
330
1F
100
AcDbEntity
  8
LAYER4
  6
Continuous
 62
     7
100
AcDbPolyline
 90
        2
 70
     0
 43
0.0
 10
64162.2978
 20
-129.5438
 10
64163.9144
 20
-129.5438
  0
LWPOLYLINE
  5
1339
330
1F
100
AcDbEntity
  8
LAYER4
  6
Continuous
 62
     7
100
AcDbPolyline
 90
        2
 70
     0
 43
0.0
 10
64178.4643
 20
-129.5438
 10
64180.081
 20
-129.5438
  0
LWPOLYLINE
  5
133D
330
1F
100
AcDbEntity
  8
LAYER4
  6
Continuous
 62
     7
100
AcDbPolyline
 90
        2
 70
     0
 43
0.0
 10
64194.6308
 20
-129.5438
 10
64196.2475
 20
-129.5438
  0
LWPOLYLINE
  5
1341
330
1F
100
AcDbEntity
  8
LAYER4
  6
Continuous
 62
     7
100
AcDbPolyline
 90
        2
 70
     0
 43
0.0
 10
64210.7974
 20
-129.5438
 10
64212.414
 20
-129.5438
  0
LWPOLYLINE
  5
1345
330
1F
100
AcDbEntity
  8
LAYER4
  6
Continuous
 62
     7
100
AcDbPolyline
 90
        2
 70
     0
 43
0.0
 10
64226.9639
 20
-129.5438
 10
64228.5806
 20
-129.5438
  0
LWPOLYLINE
  5
1349
330
1F
100
AcDbEntity
  8
LAYER4
  6
Continuous
 62
     7
100
AcDbPolyline
 90
        2
 70
     0
 43
0.0
 10
64243.1304
 20
-129.5438
 10
64244.7471
 20
-129.5438
  0
LWPOLYLINE
  5
134D
330
1F
100
AcDbEntity
  8
LAYER4
  6
Continuous
 62
     7
100
AcDbPolyline
 90
        2
 70
     0
 43
0.0
 10
64259.297
 20
-129.5438
 10
64260.9136
 20
-129.5438
  0
LWPOLYLINE
  5
1351
330
1F
100
AcDbEntity
  8
LAYER4
  6
Continuous
 62
     7
100
AcDbPolyline
 90
        2
 70
     0
 43
0.0
 10
64275.4635
 20
-129.5438
 10
64277.0801
 20
-129.5438
  0
LWPOLYLINE
  5
1355
330
1F
100
AcDbEntity
  8
LAYER4
  6
Continuous
 62
     7
100
AcDbPolyline
 90
        2
 70
     0
 43
0.0
 10
64291.63
 20
-129.5438
 10
64293.2467
 20
-129.5438
  0
LWPOLYLINE
  5
1359
330
1F
100
AcDbEntity
  8
LAYER4
  6
Continuous
 62
     7
100
AcDbPolyline
 90
        2
 70
     0
 43
0.0
 10
64307.7965
 20
-129.5438
 10
64309.4132
 20
-129.5438
  0
LWPOLYLINE
  5
135D
330
1F
100
AcDbEntity
  8
LAYER4
  6
Continuous
 62
     7
100
AcDbPolyline
 90
        2
 70
     0
 43
0.0
 10
64323.9631
 20
-129.5438
 10
64325.5797
 20
-129.5438
  0
LWPOLYLINE
  5
1361
330
1F
100
AcDbEntity
  8
LAYER4
  6
Continuous
 62
     7
100
AcDbPolyline
 90
        2
 70
     0
 43
0.0
 10
64340.1296
 20
-129.5438
 10
64341.7463
 20
-129.5438
  0
LWPOLYLINE
  5
1365
330
1F
100
AcDbEntity
  8
LAYER4
  6
Continuous
 62
     7
100
AcDbPolyline
 90
        2
 70
     0
 43
0.0
 10
64356.2961
 20
-129.5438
 10
64357.9128
 20
-129.5438
  0
LWPOLYLINE
  5
1369
330
1F
100
AcDbEntity
  8
LAYER4
  6
Continuous
 62
     7
100
AcDbPolyline
 90
        2
 70
     0
 43
0.0
 10
64372.4627
 20
-129.5438
 10
64374.0793
 20
-129.5438
  0
LWPOLYLINE
  5
136D
330
1F
100
AcDbEntity
  8
LAYER4
  6
Continuous
 62
     7
100
AcDbPolyline
 90
        2
 70
     0
 43
0.0
 10
64388.6292
 20
-129.5438
 10
64390.2458
 20
-129.5438
  0
LWPOLYLINE
  5
1371
330
1F
100
AcDbEntity
  8
LAYER4
  6
Continuous
 62
     7
100
AcDbPolyline
 90
        2
 70
     0
 43
0.0
 10
64404.7957
 20
-129.5438
 10
64406.4124
 20
-129.5438
  0
LWPOLYLINE
  5
1375
330
1F
100
AcDbEntity
  8
LAYER4
  6
Continuous
 62
     7
100
AcDbPolyline
 90
        2
 70
     0
 43
0.0
 10
64420.9622
 20
-129.5438
 10
64422.5789
 20
-129.5438
  0
LWPOLYLINE
  5
1379
330
1F
100
AcDbEntity
  8
LAYER4
  6
Continuous
 62
     7
100
AcDbPolyline
 90
        2
 70
     0
 43
0.0
 10
64437.1288
 20
-129.5438
 10
64438.7454
 20
-129.5438
  0
LWPOLYLINE
  5
137D
330
1F
100
AcDbEntity
  8
LAYER4
  6
Continuous
 62
     7
100
AcDbPolyline
 90
        2
 70
     0
 43
0.0
 10
64453.2953
 20
-129.5438
 10
64454.9119
 20
-129.5438
  0
LWPOLYLINE
  5
1381
330
1F
100
AcDbEntity
  8
LAYER4
  6
Continuous
 62
     7
100
AcDbPolyline
 90
        2
 70
     0
 43
0.0
 10
64469.4618
 20
-129.5438
 10
64471.0785
 20
-129.5438
  0
LWPOLYLINE
  5
1385
330
1F
100
AcDbEntity
  8
LAYER4
  6
Continuous
 62
     7
100
AcDbPolyline
 90
        2
 70
     0
 43
0.0
 10
64485.6284
 20
-129.5438
 10
64487.245
 20
-129.5438
  0
LWPOLYLINE
  5
1389
330
1F
100
AcDbEntity
  8
LAYER4
  6
Continuous
 62
     7
100
AcDbPolyline
 90
        2
 70
     0
 43
0.0
 10
64501.7949
 20
-129.5438
 10
64503.4115
 20
-129.5438
  0
LWPOLYLINE
  5
138D
330
1F
100
AcDbEntity
  8
LAYER4
  6
Continuous
 62
     7
100
AcDbPolyline
 90
        2
 70
     0
 43
0.0
 10
64154.2145
 20
-137.627
 10
64155.8312
 20
-137.627
  0
LWPOLYLINE
  5
1391
330
1F
100
AcDbEntity
  8
LAYER4
  6
Continuous
 62
     7
100
AcDbPolyline
 90
        2
 70
     0
 43
0.0
 10
64170.3811
 20
-137.627
 10
64171.9977
 20
-137.627
  0
LWPOLYLINE
  5
1395
330
1F
100
AcDbEntity
  8
LAYER4
  6
Continuous
 62
     7
100
AcDbPolyline
 90
        2
 70
     0
 43
0.0
 10
64186.5476
 20
-137.627
 10
64188.1642
 20
-137.627
  0
LWPOLYLINE
  5
1399
330
1F
100
AcDbEntity
  8
LAYER4
  6
Continuous
 62
     7
100
AcDbPolyline
 90
        2
 70
     0
 43
0.0
 10
64202.7141
 20
-137.627
 10
64204.3308
 20
-137.627
  0
LWPOLYLINE
  5
139D
330
1F
100
AcDbEntity
  8
LAYER4
  6
Continuous
 62
     7
100
AcDbPolyline
 90
        2
 70
     0
 43
0.0
 10
64218.8806
 20
-137.627
 10
64220.4973
 20
-137.627
  0
LWPOLYLINE
  5
13A1
330
1F
100
AcDbEntity
  8
LAYER4
  6
Continuous
 62
     7
100
AcDbPolyline
 90
        2
 70
     0
 43
0.0
 10
64235.0472
 20
-137.627
 10
64236.6638
 20
-137.627
  0
LWPOLYLINE
  5
13A5
330
1F
100
AcDbEntity
  8
LAYER4
  6
Continuous
 62
     7
100
AcDbPolyline
 90
        2
 70
     0
 43
0.0
 10
64251.2137
 20
-137.627
 10
64252.8304
 20
-137.627
  0
LWPOLYLINE
  5
13A9
330
1F
100
AcDbEntity
  8
LAYER4
  6
Continuous
 62
     7
100
AcDbPolyline
 90
        2
 70
     0
 43
0.0
 10
64267.3802
 20
-137.627
 10
64268.9969
 20
-137.627
  0
LWPOLYLINE
  5
13AD
330
1F
100
AcDbEntity
  8
LAYER4
  6
Continuous
 62
     7
100
AcDbPolyline
 90
        2
 70
     0
 43
0.0
 10
64283.5468
 20
-137.627
 10
64285.1634
 20
-137.627
  0
LWPOLYLINE
  5
13B1
330
1F
100
AcDbEntity
  8
LAYER4
  6
Continuous
 62
     7
100
AcDbPolyline
 90
        2
 70
     0
 43
0.0
 10
64299.7133
 20
-137.627
 10
64301.3299
 20
-137.627
  0
LWPOLYLINE
  5
13B5
330
1F
100
AcDbEntity
  8
LAYER4
  6
Continuous
 62
     7
100
AcDbPolyline
 90
        2
 70
     0
 43
0.0
 10
64315.8798
 20
-137.627
 10
64317.4965
 20
-137.627
  0
LWPOLYLINE
  5
13B9
330
1F
100
AcDbEntity
  8
LAYER4
  6
Continuous
 62
     7
100
AcDbPolyline
 90
        2
 70
     0
 43
0.0
 10
64332.0463
 20
-137.627
 10
64333.663
 20
-137.627
  0
LWPOLYLINE
  5
13BD
330
1F
100
AcDbEntity
  8
LAYER4
  6
Continuous
 62
     7
100
AcDbPolyline
 90
        2
 70
     0
 43
0.0
 10
64348.2129
 20
-137.627
 10
64349.8295
 20
-137.627
  0
LWPOLYLINE
  5
13C1
330
1F
100
AcDbEntity
  8
LAYER4
  6
Continuous
 62
     7
100
AcDbPolyline
 90
        2
 70
     0
 43
0.0
 10
64364.3794
 20
-137.627
 10
64365.996
 20
-137.627
  0
LWPOLYLINE
  5
13C5
330
1F
100
AcDbEntity
  8
LAYER4
  6
Continuous
 62
     7
100
AcDbPolyline
 90
        2
 70
     0
 43
0.0
 10
64380.5459
 20
-137.627
 10
64382.1626
 20
-137.627
  0
LWPOLYLINE
  5
13C9
330
1F
100
AcDbEntity
  8
LAYER4
  6
Continuous
 62
     7
100
AcDbPolyline
 90
        2
 70
     0
 43
0.0
 10
64396.7124
 20
-137.627
 10
64398.3291
 20
-137.627
  0
LWPOLYLINE
  5
13CD
330
1F
100
AcDbEntity
  8
LAYER4
  6
Continuous
 62
     7
100
AcDbPolyline
 90
        2
 70
     0
 43
0.0
 10
64412.879
 20
-137.627
 10
64414.4956
 20
-137.627
  0
LWPOLYLINE
  5
13D1
330
1F
100
AcDbEntity
  8
LAYER4
  6
Continuous
 62
     7
100
AcDbPolyline
 90
        2
 70
     0
 43
0.0
 10
64429.0455
 20
-137.627
 10
64430.6622
 20
-137.627
  0
LWPOLYLINE
  5
13D5
330
1F
100
AcDbEntity
  8
LAYER4
  6
Continuous
 62
     7
100
AcDbPolyline
 90
        2
 70
     0
 43
0.0
 10
64445.212
 20
-137.627
 10
64446.8287
 20
-137.627
  0
LWPOLYLINE
  5
13D9
330
1F
100
AcDbEntity
  8
LAYER4
  6
Continuous
 62
     7
100
AcDbPolyline
 90
        2
 70
     0
 43
0.0
 10
64461.3786
 20
-137.627
 10
64462.9952
 20
-137.627
  0
LWPOLYLINE
  5
13DD
330
1F
100
AcDbEntity
  8
LAYER4
  6
Continuous
 62
     7
100
AcDbPolyline
 90
        2
 70
     0
 43
0.0
 10
64477.5451
 20
-137.627
 10
64479.1617
 20
-137.627
  0
LWPOLYLINE
  5
13E1
330
1F
100
AcDbEntity
  8
LAYER4
  6
Continuous
 62
     7
100
AcDbPolyline
 90
        2
 70
     0
 43
0.0
 10
64493.7116
 20
-137.627
 10
64495.3283
 20
-137.627
  0
LWPOLYLINE
  5
13E5
330
1F
100
AcDbEntity
  8
LAYER4
  6
Continuous
 62
     7
100
AcDbPolyline
 90
        2
 70
     0
 43
0.0
 10
64146.1313
 20
-145.7103
 10
64147.7479
 20
-145.7103
  0
LWPOLYLINE
  5
13E9
330
1F
100
AcDbEntity
  8
LAYER4
  6
Continuous
 62
     7
100
AcDbPolyline
 90
        2
 70
     0
 43
0.0
 10
64162.2978
 20
-145.7103
 10
64163.9144
 20
-145.7103
  0
LWPOLYLINE
  5
13ED
330
1F
100
AcDbEntity
  8
LAYER4
  6
Continuous
 62
     7
100
AcDbPolyline
 90
        2
 70
     0
 43
0.0
 10
64178.4643
 20
-145.7103
 10
64180.081
 20
-145.7103
  0
LWPOLYLINE
  5
13F1
330
1F
100
AcDbEntity
  8
LAYER4
  6
Continuous
 62
     7
100
AcDbPolyline
 90
        2
 70
     0
 43
0.0
 10
64194.6308
 20
-145.7103
 10
64196.2475
 20
-145.7103
  0
LWPOLYLINE
  5
13F5
330
1F
100
AcDbEntity
  8
LAYER4
  6
Continuous
 62
     7
100
AcDbPolyline
 90
        2
 70
     0
 43
0.0
 10
64210.7974
 20
-145.7103
 10
64212.414
 20
-145.7103
  0
LWPOLYLINE
  5
13F9
330
1F
100
AcDbEntity
  8
LAYER4
  6
Continuous
 62
     7
100
AcDbPolyline
 90
        2
 70
     0
 43
0.0
 10
64226.9639
 20
-145.7103
 10
64228.5806
 20
-145.7103
  0
LWPOLYLINE
  5
13FD
330
1F
100
AcDbEntity
  8
LAYER4
  6
Continuous
 62
     7
100
AcDbPolyline
 90
        2
 70
     0
 43
0.0
 10
64243.1304
 20
-145.7103
 10
64244.7471
 20
-145.7103
  0
LWPOLYLINE
  5
1401
330
1F
100
AcDbEntity
  8
LAYER4
  6
Continuous
 62
     7
100
AcDbPolyline
 90
        2
 70
     0
 43
0.0
 10
64259.297
 20
-145.7103
 10
64260.9136
 20
-145.7103
  0
LWPOLYLINE
  5
1405
330
1F
100
AcDbEntity
  8
LAYER4
  6
Continuous
 62
     7
100
AcDbPolyline
 90
        2
 70
     0
 43
0.0
 10
64275.4635
 20
-145.7103
 10
64277.0801
 20
-145.7103
  0
LWPOLYLINE
  5
1409
330
1F
100
AcDbEntity
  8
LAYER4
  6
Continuous
 62
     7
100
AcDbPolyline
 90
        2
 70
     0
 43
0.0
 10
64291.63
 20
-145.7103
 10
64293.2467
 20
-145.7103
  0
LWPOLYLINE
  5
140D
330
1F
100
AcDbEntity
  8
LAYER4
  6
Continuous
 62
     7
100
AcDbPolyline
 90
        2
 70
     0
 43
0.0
 10
64307.7965
 20
-145.7103
 10
64309.4132
 20
-145.7103
  0
LWPOLYLINE
  5
1411
330
1F
100
AcDbEntity
  8
LAYER4
  6
Continuous
 62
     7
100
AcDbPolyline
 90
        2
 70
     0
 43
0.0
 10
64323.9631
 20
-145.7103
 10
64325.5797
 20
-145.7103
  0
LWPOLYLINE
  5
1415
330
1F
100
AcDbEntity
  8
LAYER4
  6
Continuous
 62
     7
100
AcDbPolyline
 90
        2
 70
     0
 43
0.0
 10
64340.1296
 20
-145.7103
 10
64341.7463
 20
-145.7103
  0
LWPOLYLINE
  5
1419
330
1F
100
AcDbEntity
  8
LAYER4
  6
Continuous
 62
     7
100
AcDbPolyline
 90
        2
 70
     0
 43
0.0
 10
64356.2961
 20
-145.7103
 10
64357.9128
 20
-145.7103
  0
LWPOLYLINE
  5
141D
330
1F
100
AcDbEntity
  8
LAYER4
  6
Continuous
 62
     7
100
AcDbPolyline
 90
        2
 70
     0
 43
0.0
 10
64372.4627
 20
-145.7103
 10
64374.0793
 20
-145.7103
  0
LWPOLYLINE
  5
1421
330
1F
100
AcDbEntity
  8
LAYER4
  6
Continuous
 62
     7
100
AcDbPolyline
 90
        2
 70
     0
 43
0.0
 10
64388.6292
 20
-145.7103
 10
64390.2458
 20
-145.7103
  0
LWPOLYLINE
  5
1425
330
1F
100
AcDbEntity
  8
LAYER4
  6
Continuous
 62
     7
100
AcDbPolyline
 90
        2
 70
     0
 43
0.0
 10
64404.7957
 20
-145.7103
 10
64406.4124
 20
-145.7103
  0
LWPOLYLINE
  5
1429
330
1F
100
AcDbEntity
  8
LAYER4
  6
Continuous
 62
     7
100
AcDbPolyline
 90
        2
 70
     0
 43
0.0
 10
64420.9622
 20
-145.7103
 10
64422.5789
 20
-145.7103
  0
LWPOLYLINE
  5
142D
330
1F
100
AcDbEntity
  8
LAYER4
  6
Continuous
 62
     7
100
AcDbPolyline
 90
        2
 70
     0
 43
0.0
 10
64437.1288
 20
-145.7103
 10
64438.7454
 20
-145.7103
  0
LWPOLYLINE
  5
1431
330
1F
100
AcDbEntity
  8
LAYER4
  6
Continuous
 62
     7
100
AcDbPolyline
 90
        2
 70
     0
 43
0.0
 10
64453.2953
 20
-145.7103
 10
64454.9119
 20
-145.7103
  0
LWPOLYLINE
  5
1435
330
1F
100
AcDbEntity
  8
LAYER4
  6
Continuous
 62
     7
100
AcDbPolyline
 90
        2
 70
     0
 43
0.0
 10
64469.4618
 20
-145.7103
 10
64471.0785
 20
-145.7103
  0
LWPOLYLINE
  5
1439
330
1F
100
AcDbEntity
  8
LAYER4
  6
Continuous
 62
     7
100
AcDbPolyline
 90
        2
 70
     0
 43
0.0
 10
64485.6284
 20
-145.7103
 10
64487.245
 20
-145.7103
  0
LWPOLYLINE
  5
143D
330
1F
100
AcDbEntity
  8
LAYER4
  6
Continuous
 62
     7
100
AcDbPolyline
 90
        2
 70
     0
 43
0.0
 10
64501.7949
 20
-145.7103
 10
64503.4115
 20
-145.7103
  0
LWPOLYLINE
  5
1441
330
1F
100
AcDbEntity
  8
LAYER4
  6
Continuous
 62
     7
100
AcDbPolyline
 90
        2
 70
     0
 43
0.0
 10
64154.2145
 20
-153.7936
 10
64155.8312
 20
-153.7936
  0
LWPOLYLINE
  5
1445
330
1F
100
AcDbEntity
  8
LAYER4
  6
Continuous
 62
     7
100
AcDbPolyline
 90
        2
 70
     0
 43
0.0
 10
64170.3811
 20
-153.7936
 10
64171.9977
 20
-153.7936
  0
LWPOLYLINE
  5
1449
330
1F
100
AcDbEntity
  8
LAYER4
  6
Continuous
 62
     7
100
AcDbPolyline
 90
        2
 70
     0
 43
0.0
 10
64186.5476
 20
-153.7936
 10
64188.1642
 20
-153.7936
  0
LWPOLYLINE
  5
144D
330
1F
100
AcDbEntity
  8
LAYER4
  6
Continuous
 62
     7
100
AcDbPolyline
 90
        2
 70
     0
 43
0.0
 10
64202.7141
 20
-153.7936
 10
64204.3308
 20
-153.7936
  0
LWPOLYLINE
  5
1451
330
1F
100
AcDbEntity
  8
LAYER4
  6
Continuous
 62
     7
100
AcDbPolyline
 90
        2
 70
     0
 43
0.0
 10
64218.8806
 20
-153.7936
 10
64220.4973
 20
-153.7936
  0
LWPOLYLINE
  5
1455
330
1F
100
AcDbEntity
  8
LAYER4
  6
Continuous
 62
     7
100
AcDbPolyline
 90
        2
 70
     0
 43
0.0
 10
64235.0472
 20
-153.7936
 10
64236.6638
 20
-153.7936
  0
LWPOLYLINE
  5
1459
330
1F
100
AcDbEntity
  8
LAYER4
  6
Continuous
 62
     7
100
AcDbPolyline
 90
        2
 70
     0
 43
0.0
 10
64251.2137
 20
-153.7936
 10
64252.8304
 20
-153.7936
  0
LWPOLYLINE
  5
145D
330
1F
100
AcDbEntity
  8
LAYER4
  6
Continuous
 62
     7
100
AcDbPolyline
 90
        2
 70
     0
 43
0.0
 10
64267.3802
 20
-153.7936
 10
64268.9969
 20
-153.7936
  0
LWPOLYLINE
  5
1461
330
1F
100
AcDbEntity
  8
LAYER4
  6
Continuous
 62
     7
100
AcDbPolyline
 90
        2
 70
     0
 43
0.0
 10
64283.5468
 20
-153.7936
 10
64285.1634
 20
-153.7936
  0
LWPOLYLINE
  5
1465
330
1F
100
AcDbEntity
  8
LAYER4
  6
Continuous
 62
     7
100
AcDbPolyline
 90
        2
 70
     0
 43
0.0
 10
64299.7133
 20
-153.7936
 10
64301.3299
 20
-153.7936
  0
LWPOLYLINE
  5
1469
330
1F
100
AcDbEntity
  8
LAYER4
  6
Continuous
 62
     7
100
AcDbPolyline
 90
        2
 70
     0
 43
0.0
 10
64315.8798
 20
-153.7936
 10
64317.4965
 20
-153.7936
  0
LWPOLYLINE
  5
146D
330
1F
100
AcDbEntity
  8
LAYER4
  6
Continuous
 62
     7
100
AcDbPolyline
 90
        2
 70
     0
 43
0.0
 10
64332.0463
 20
-153.7936
 10
64333.663
 20
-153.7936
  0
LWPOLYLINE
  5
1471
330
1F
100
AcDbEntity
  8
LAYER4
  6
Continuous
 62
     7
100
AcDbPolyline
 90
        2
 70
     0
 43
0.0
 10
64348.2129
 20
-153.7936
 10
64349.8295
 20
-153.7936
  0
LWPOLYLINE
  5
1475
330
1F
100
AcDbEntity
  8
LAYER4
  6
Continuous
 62
     7
100
AcDbPolyline
 90
        2
 70
     0
 43
0.0
 10
64364.3794
 20
-153.7936
 10
64365.996
 20
-153.7936
  0
LWPOLYLINE
  5
1479
330
1F
100
AcDbEntity
  8
LAYER4
  6
Continuous
 62
     7
100
AcDbPolyline
 90
        2
 70
     0
 43
0.0
 10
64380.5459
 20
-153.7936
 10
64382.1626
 20
-153.7936
  0
LWPOLYLINE
  5
147D
330
1F
100
AcDbEntity
  8
LAYER4
  6
Continuous
 62
     7
100
AcDbPolyline
 90
        2
 70
     0
 43
0.0
 10
64396.7124
 20
-153.7936
 10
64398.3291
 20
-153.7936
  0
LWPOLYLINE
  5
1481
330
1F
100
AcDbEntity
  8
LAYER4
  6
Continuous
 62
     7
100
AcDbPolyline
 90
        2
 70
     0
 43
0.0
 10
64412.879
 20
-153.7936
 10
64414.4956
 20
-153.7936
  0
LWPOLYLINE
  5
1485
330
1F
100
AcDbEntity
  8
LAYER4
  6
Continuous
 62
     7
100
AcDbPolyline
 90
        2
 70
     0
 43
0.0
 10
64429.0455
 20
-153.7936
 10
64430.6622
 20
-153.7936
  0
LWPOLYLINE
  5
1489
330
1F
100
AcDbEntity
  8
LAYER4
  6
Continuous
 62
     7
100
AcDbPolyline
 90
        2
 70
     0
 43
0.0
 10
64445.212
 20
-153.7936
 10
64446.8287
 20
-153.7936
  0
LWPOLYLINE
  5
148D
330
1F
100
AcDbEntity
  8
LAYER4
  6
Continuous
 62
     7
100
AcDbPolyline
 90
        2
 70
     0
 43
0.0
 10
64461.3786
 20
-153.7936
 10
64462.9952
 20
-153.7936
  0
LWPOLYLINE
  5
1491
330
1F
100
AcDbEntity
  8
LAYER4
  6
Continuous
 62
     7
100
AcDbPolyline
 90
        2
 70
     0
 43
0.0
 10
64477.5451
 20
-153.7936
 10
64479.1617
 20
-153.7936
  0
LWPOLYLINE
  5
1495
330
1F
100
AcDbEntity
  8
LAYER4
  6
Continuous
 62
     7
100
AcDbPolyline
 90
        2
 70
     0
 43
0.0
 10
64493.7116
 20
-153.7936
 10
64495.3283
 20
-153.7936
  0
LWPOLYLINE
  5
1499
330
1F
100
AcDbEntity
  8
LAYER4
  6
Continuous
 62
     7
100
AcDbPolyline
 90
        2
 70
     0
 43
0.0
 10
64146.1313
 20
-161.8768
 10
64147.7479
 20
-161.8768
  0
LWPOLYLINE
  5
149D
330
1F
100
AcDbEntity
  8
LAYER4
  6
Continuous
 62
     7
100
AcDbPolyline
 90
        2
 70
     0
 43
0.0
 10
64162.2978
 20
-161.8768
 10
64163.9144
 20
-161.8768
  0
LWPOLYLINE
  5
14A1
330
1F
100
AcDbEntity
  8
LAYER4
  6
Continuous
 62
     7
100
AcDbPolyline
 90
        2
 70
     0
 43
0.0
 10
64178.4643
 20
-161.8768
 10
64180.081
 20
-161.8768
  0
LWPOLYLINE
  5
14A5
330
1F
100
AcDbEntity
  8
LAYER4
  6
Continuous
 62
     7
100
AcDbPolyline
 90
        2
 70
     0
 43
0.0
 10
64194.6308
 20
-161.8768
 10
64196.2475
 20
-161.8768
  0
LWPOLYLINE
  5
14A9
330
1F
100
AcDbEntity
  8
LAYER4
  6
Continuous
 62
     7
100
AcDbPolyline
 90
        2
 70
     0
 43
0.0
 10
64210.7974
 20
-161.8768
 10
64212.414
 20
-161.8768
  0
LWPOLYLINE
  5
14AD
330
1F
100
AcDbEntity
  8
LAYER4
  6
Continuous
 62
     7
100
AcDbPolyline
 90
        2
 70
     0
 43
0.0
 10
64226.9639
 20
-161.8768
 10
64228.5806
 20
-161.8768
  0
LWPOLYLINE
  5
14B1
330
1F
100
AcDbEntity
  8
LAYER4
  6
Continuous
 62
     7
100
AcDbPolyline
 90
        2
 70
     0
 43
0.0
 10
64243.1304
 20
-161.8768
 10
64244.7471
 20
-161.8768
  0
LWPOLYLINE
  5
14B5
330
1F
100
AcDbEntity
  8
LAYER4
  6
Continuous
 62
     7
100
AcDbPolyline
 90
        2
 70
     0
 43
0.0
 10
64259.297
 20
-161.8768
 10
64260.9136
 20
-161.8768
  0
LWPOLYLINE
  5
14B9
330
1F
100
AcDbEntity
  8
LAYER4
  6
Continuous
 62
     7
100
AcDbPolyline
 90
        2
 70
     0
 43
0.0
 10
64275.4635
 20
-161.8768
 10
64277.0801
 20
-161.8768
  0
LWPOLYLINE
  5
14BD
330
1F
100
AcDbEntity
  8
LAYER4
  6
Continuous
 62
     7
100
AcDbPolyline
 90
        2
 70
     0
 43
0.0
 10
64291.63
 20
-161.8768
 10
64293.2467
 20
-161.8768
  0
LWPOLYLINE
  5
14C1
330
1F
100
AcDbEntity
  8
LAYER4
  6
Continuous
 62
     7
100
AcDbPolyline
 90
        2
 70
     0
 43
0.0
 10
64307.7965
 20
-161.8768
 10
64309.4132
 20
-161.8768
  0
LWPOLYLINE
  5
14C5
330
1F
100
AcDbEntity
  8
LAYER4
  6
Continuous
 62
     7
100
AcDbPolyline
 90
        2
 70
     0
 43
0.0
 10
64323.9631
 20
-161.8768
 10
64325.5797
 20
-161.8768
  0
LWPOLYLINE
  5
14C9
330
1F
100
AcDbEntity
  8
LAYER4
  6
Continuous
 62
     7
100
AcDbPolyline
 90
        2
 70
     0
 43
0.0
 10
64340.1296
 20
-161.8768
 10
64341.7463
 20
-161.8768
  0
LWPOLYLINE
  5
14CD
330
1F
100
AcDbEntity
  8
LAYER4
  6
Continuous
 62
     7
100
AcDbPolyline
 90
        2
 70
     0
 43
0.0
 10
64356.2961
 20
-161.8768
 10
64357.9128
 20
-161.8768
  0
LWPOLYLINE
  5
14D1
330
1F
100
AcDbEntity
  8
LAYER4
  6
Continuous
 62
     7
100
AcDbPolyline
 90
        2
 70
     0
 43
0.0
 10
64372.4627
 20
-161.8768
 10
64374.0793
 20
-161.8768
  0
LWPOLYLINE
  5
14D5
330
1F
100
AcDbEntity
  8
LAYER4
  6
Continuous
 62
     7
100
AcDbPolyline
 90
        2
 70
     0
 43
0.0
 10
64388.6292
 20
-161.8768
 10
64390.2458
 20
-161.8768
  0
LWPOLYLINE
  5
14D9
330
1F
100
AcDbEntity
  8
LAYER4
  6
Continuous
 62
     7
100
AcDbPolyline
 90
        2
 70
     0
 43
0.0
 10
64404.7957
 20
-161.8768
 10
64406.4124
 20
-161.8768
  0
LWPOLYLINE
  5
14DD
330
1F
100
AcDbEntity
  8
LAYER4
  6
Continuous
 62
     7
100
AcDbPolyline
 90
        2
 70
     0
 43
0.0
 10
64420.9622
 20
-161.8768
 10
64422.5789
 20
-161.8768
  0
LWPOLYLINE
  5
14E1
330
1F
100
AcDbEntity
  8
LAYER4
  6
Continuous
 62
     7
100
AcDbPolyline
 90
        2
 70
     0
 43
0.0
 10
64437.1288
 20
-161.8768
 10
64438.7454
 20
-161.8768
  0
LWPOLYLINE
  5
14E5
330
1F
100
AcDbEntity
  8
LAYER4
  6
Continuous
 62
     7
100
AcDbPolyline
 90
        2
 70
     0
 43
0.0
 10
64453.2953
 20
-161.8768
 10
64454.9119
 20
-161.8768
  0
LWPOLYLINE
  5
14E9
330
1F
100
AcDbEntity
  8
LAYER4
  6
Continuous
 62
     7
100
AcDbPolyline
 90
        2
 70
     0
 43
0.0
 10
64469.4618
 20
-161.8768
 10
64471.0785
 20
-161.8768
  0
LWPOLYLINE
  5
14ED
330
1F
100
AcDbEntity
  8
LAYER4
  6
Continuous
 62
     7
100
AcDbPolyline
 90
        2
 70
     0
 43
0.0
 10
64485.6284
 20
-161.8768
 10
64487.245
 20
-161.8768
  0
LWPOLYLINE
  5
14F1
330
1F
100
AcDbEntity
  8
LAYER4
  6
Continuous
 62
     7
100
AcDbPolyline
 90
        2
 70
     0
 43
0.0
 10
64501.7949
 20
-161.8768
 10
64503.4115
 20
-161.8768
  0
LWPOLYLINE
  5
14F5
330
1F
100
AcDbEntity
  8
LAYER4
  6
Continuous
 62
     7
100
AcDbPolyline
 90
        2
 70
     0
 43
0.0
 10
64154.2145
 20
-169.9601
 10
64155.8312
 20
-169.9601
  0
LWPOLYLINE
  5
14F9
330
1F
100
AcDbEntity
  8
LAYER4
  6
Continuous
 62
     7
100
AcDbPolyline
 90
        2
 70
     0
 43
0.0
 10
64170.3811
 20
-169.9601
 10
64171.9977
 20
-169.9601
  0
LWPOLYLINE
  5
14FD
330
1F
100
AcDbEntity
  8
LAYER4
  6
Continuous
 62
     7
100
AcDbPolyline
 90
        2
 70
     0
 43
0.0
 10
64186.5476
 20
-169.9601
 10
64188.1642
 20
-169.9601
  0
LWPOLYLINE
  5
1501
330
1F
100
AcDbEntity
  8
LAYER4
  6
Continuous
 62
     7
100
AcDbPolyline
 90
        2
 70
     0
 43
0.0
 10
64202.7141
 20
-169.9601
 10
64204.3308
 20
-169.9601
  0
LWPOLYLINE
  5
1505
330
1F
100
AcDbEntity
  8
LAYER4
  6
Continuous
 62
     7
100
AcDbPolyline
 90
        2
 70
     0
 43
0.0
 10
64218.8806
 20
-169.9601
 10
64220.4973
 20
-169.9601
  0
LWPOLYLINE
  5
1509
330
1F
100
AcDbEntity
  8
LAYER4
  6
Continuous
 62
     7
100
AcDbPolyline
 90
        2
 70
     0
 43
0.0
 10
64235.0472
 20
-169.9601
 10
64236.6638
 20
-169.9601
  0
LWPOLYLINE
  5
150D
330
1F
100
AcDbEntity
  8
LAYER4
  6
Continuous
 62
     7
100
AcDbPolyline
 90
        2
 70
     0
 43
0.0
 10
64251.2137
 20
-169.9601
 10
64252.8304
 20
-169.9601
  0
LWPOLYLINE
  5
1511
330
1F
100
AcDbEntity
  8
LAYER4
  6
Continuous
 62
     7
100
AcDbPolyline
 90
        2
 70
     0
 43
0.0
 10
64267.3802
 20
-169.9601
 10
64268.9969
 20
-169.9601
  0
LWPOLYLINE
  5
1515
330
1F
100
AcDbEntity
  8
LAYER4
  6
Continuous
 62
     7
100
AcDbPolyline
 90
        2
 70
     0
 43
0.0
 10
64283.5468
 20
-169.9601
 10
64285.1634
 20
-169.9601
  0
LWPOLYLINE
  5
1519
330
1F
100
AcDbEntity
  8
LAYER4
  6
Continuous
 62
     7
100
AcDbPolyline
 90
        2
 70
     0
 43
0.0
 10
64299.7133
 20
-169.9601
 10
64301.3299
 20
-169.9601
  0
LWPOLYLINE
  5
151D
330
1F
100
AcDbEntity
  8
LAYER4
  6
Continuous
 62
     7
100
AcDbPolyline
 90
        2
 70
     0
 43
0.0
 10
64315.8798
 20
-169.9601
 10
64317.4965
 20
-169.9601
  0
LWPOLYLINE
  5
1521
330
1F
100
AcDbEntity
  8
LAYER4
  6
Continuous
 62
     7
100
AcDbPolyline
 90
        2
 70
     0
 43
0.0
 10
64332.0463
 20
-169.9601
 10
64333.663
 20
-169.9601
  0
LWPOLYLINE
  5
1525
330
1F
100
AcDbEntity
  8
LAYER4
  6
Continuous
 62
     7
100
AcDbPolyline
 90
        2
 70
     0
 43
0.0
 10
64348.2129
 20
-169.9601
 10
64349.8295
 20
-169.9601
  0
LWPOLYLINE
  5
1529
330
1F
100
AcDbEntity
  8
LAYER4
  6
Continuous
 62
     7
100
AcDbPolyline
 90
        2
 70
     0
 43
0.0
 10
64364.3794
 20
-169.9601
 10
64365.996
 20
-169.9601
  0
LWPOLYLINE
  5
152D
330
1F
100
AcDbEntity
  8
LAYER4
  6
Continuous
 62
     7
100
AcDbPolyline
 90
        2
 70
     0
 43
0.0
 10
64380.5459
 20
-169.9601
 10
64382.1626
 20
-169.9601
  0
LWPOLYLINE
  5
1531
330
1F
100
AcDbEntity
  8
LAYER4
  6
Continuous
 62
     7
100
AcDbPolyline
 90
        2
 70
     0
 43
0.0
 10
64396.7124
 20
-169.9601
 10
64398.3291
 20
-169.9601
  0
LWPOLYLINE
  5
1535
330
1F
100
AcDbEntity
  8
LAYER4
  6
Continuous
 62
     7
100
AcDbPolyline
 90
        2
 70
     0
 43
0.0
 10
64412.879
 20
-169.9601
 10
64414.4956
 20
-169.9601
  0
LWPOLYLINE
  5
1539
330
1F
100
AcDbEntity
  8
LAYER4
  6
Continuous
 62
     7
100
AcDbPolyline
 90
        2
 70
     0
 43
0.0
 10
64429.0455
 20
-169.9601
 10
64430.6622
 20
-169.9601
  0
LWPOLYLINE
  5
153D
330
1F
100
AcDbEntity
  8
LAYER4
  6
Continuous
 62
     7
100
AcDbPolyline
 90
        2
 70
     0
 43
0.0
 10
64445.212
 20
-169.9601
 10
64446.8287
 20
-169.9601
  0
LWPOLYLINE
  5
1541
330
1F
100
AcDbEntity
  8
LAYER4
  6
Continuous
 62
     7
100
AcDbPolyline
 90
        2
 70
     0
 43
0.0
 10
64461.3786
 20
-169.9601
 10
64462.9952
 20
-169.9601
  0
LWPOLYLINE
  5
1545
330
1F
100
AcDbEntity
  8
LAYER4
  6
Continuous
 62
     7
100
AcDbPolyline
 90
        2
 70
     0
 43
0.0
 10
64477.5451
 20
-169.9601
 10
64479.1617
 20
-169.9601
  0
LWPOLYLINE
  5
1549
330
1F
100
AcDbEntity
  8
LAYER4
  6
Continuous
 62
     7
100
AcDbPolyline
 90
        2
 70
     0
 43
0.0
 10
64493.7116
 20
-169.9601
 10
64495.3283
 20
-169.9601
  0
LWPOLYLINE
  5
154D
330
1F
100
AcDbEntity
  8
LAYER5
  6
Continuous
 62
     7
100
AcDbPolyline
 90
        2
 70
     0
 43
0.0
 10
65256.4484
 20
779.6246
 10
64939.4551
 20
779.6228
  0
TEXT
  5
157E
330
1F
100
AcDbEntity
  8
0
  6
Continuous
 62
     7
370
    30
100
AcDbText
 10
62995.58374166306
 20
-564.4902626485974
 30
0.0
 40
50.0
  1
Reinforced Concrete Masonry Bond Beam Manafactured By Island Block & Paving
 50
359.9160919001129
 41
0.7402490281755585
  7
_TCW_TXTSTY_4
 72
     5
 11
65660.47738542042
 21
-568.3929291940885
 31
0.0
100
AcDbText
1001
TCAD
1000
TCW40_TEXT
1002
{
1000
txt.shx
1070
     0
1070
  1025
1002
}
  0
ENDSEC
  0
SECTION
  2
OBJECTS
  0
DICTIONARY
  5
C
330
0
100
AcDbDictionary
281
     1
  3
ACAD_COLOR
350
6C
  3
ACAD_GROUP
350
D
  3
ACAD_LAYOUT
350
1A
  3
ACAD_MATERIAL
350
6B
  3
ACAD_MLEADERSTYLE
350
1596
  3
ACAD_MLINESTYLE
350
17
  3
ACAD_PLOTSETTINGS
350
19
  3
ACAD_PLOTSTYLENAME
350
E
  3
ACAD_SCALELIST
350
99
  3
ACAD_TABLESTYLE
350
92
  3
AcDbVariableDictionary
350
59
  0
DICTIONARY
  5
1595
330
1F
100
AcDbDictionary
280
     1
281
     1
  0
DICTIONARY
  5
6C
102
{ACAD_REACTORS
330
C
102
}
330
C
100
AcDbDictionary
281
     1
  0
DICTIONARY
  5
D
102
{ACAD_REACTORS
330
C
102
}
330
C
100
AcDbDictionary
281
     1
  0
DICTIONARY
  5
1A
102
{ACAD_REACTORS
330
C
102
}
330
C
100
AcDbDictionary
281
     1
  3
Layout1
350
74
  3
Model
350
22
  0
DICTIONARY
  5
6B
102
{ACAD_REACTORS
330
C
102
}
330
C
100
AcDbDictionary
281
     1
  0
DICTIONARY
  5
1596
102
{ACAD_REACTORS
330
C
102
}
330
C
100
AcDbDictionary
281
     1
  0
DICTIONARY
  5
17
102
{ACAD_REACTORS
330
C
102
}
330
C
100
AcDbDictionary
281
     1
  3
Standard
350
18
  0
DICTIONARY
  5
19
102
{ACAD_REACTORS
330
C
102
}
330
C
100
AcDbDictionary
281
     1
  0
ACDBDICTIONARYWDFLT
  5
E
102
{ACAD_REACTORS
330
C
102
}
330
C
100
AcDbDictionary
281
     1
  3
Normal
350
F
100
AcDbDictionaryWithDefault
340
F
  0
DICTIONARY
  5
99
102
{ACAD_REACTORS
330
C
102
}
330
C
100
AcDbDictionary
281
     1
  3
A0
350
1557
  3
A1
350
1558
  3
A2
350
1559
  3
A3
350
155A
  3
A4
350
155B
  3
A5
350
155C
  3
A6
350
155D
  3
A7
350
155E
  3
A8
350
155F
  3
A9
350
1560
  3
B0
350
1561
  3
B1
350
1562
  3
B2
350
1563
  3
B3
350
1564
  3
B4
350
1565
  3
B5
350
1566
  3
B6
350
1567
  3
B7
350
1568
  3
B8
350
1569
  3
B9
350
156A
  3
C0
350
156B
  3
C1
350
156C
  3
C2
350
156D
  3
C3
350
156E
  3
C4
350
156F
  3
C5
350
1570
  3
C6
350
1571
  3
C7
350
1572
  3
C8
350
1573
  3
C9
350
1574
  3
D0
350
1575
  3
D1
350
1576
  3
D2
350
1577
  0
DICTIONARY
  5
92
102
{ACAD_REACTORS
330
C
102
}
330
C
100
AcDbDictionary
281
     1
  3
Standard
350
93
  0
DICTIONARY
  5
59
102
{ACAD_REACTORS
330
C
102
}
330
C
100
AcDbDictionary
281
     1
  3
CANNOSCALE
350
1597
  3
CTABLESTYLE
350
98
  3
DIMASSOC
350
1579
  3
HIDETEXT
350
5E
  0
LAYOUT
  5
74
102
{ACAD_REACTORS
330
1A
102
}
330
1A
100
AcDbPlotSettings
  1

  2
none_device
  4
ISO_C5_(229.00_x_162.00_MM)
  6

 40
0.0
 41
0.0
 42
0.0
 43
0.0
 44
229.0
 45
162.0
 46
0.0
 47
0.0
 48
0.0
 49
0.0
140
0.0
141
0.0
142
1.0
143
1.0
 70
   688
 72
     1
 73
     0
 74
     5
  7

 75
    16
 76
     0
 77
     2
 78
   300
147
1.0
148
0.0
149
0.0
100
AcDbLayout
  1
Layout1
 70
     1
 71
     1
 10
0.0
 20
0.0
 11
12.0
 21
9.0
 12
0.0
 22
0.0
 32
0.0
 14
1.000000000000000E+20
 24
1.000000000000000E+20
 34
1.000000000000000E+20
 15
-1.000000000000000E+20
 25
-1.000000000000000E+20
 35
-1.000000000000000E+20
146
0.0
 13
0.0
 23
0.0
 33
0.0
 16
1.0
 26
0.0
 36
0.0
 17
0.0
 27
1.0
 37
0.0
 76
     0
330
73
  0
LAYOUT
  5
22
102
{ACAD_REACTORS
330
1A
102
}
330
1A
100
AcDbPlotSettings
  1

  2
none_device
  4
ISO_C5_(229.00_x_162.00_MM)
  6

 40
0.0
 41
0.0
 42
0.0
 43
0.0
 44
229.0
 45
162.0
 46
0.0
 47
0.0
 48
0.0
 49
0.0
140
0.0
141
0.0
142
1.0
143
1.0
 70
 11952
 72
     1
 73
     0
 74
     0
  7

 75
    16
 76
     0
 77
     2
 78
   300
147
1.0
148
0.0
149
0.0
100
AcDbLayout
  1
Model
 70
     1
 71
     0
 10
62927.4661
 20
-686.3755
 11
65479.9668
 21
1531.6252
 12
0.0
 22
0.0
 32
0.0
 14
62927.4661
 24
-694.1761750158676
 34
0.0
 15
65948.75127277656
 25
1521.6251
 35
0.0
146
0.0
 13
0.0
 23
0.0
 33
0.0
 16
1.0
 26
0.0
 36
0.0
 17
0.0
 27
1.0
 37
0.0
 76
     0
330
1F
331
97
  0
MLINESTYLE
  5
18
102
{ACAD_REACTORS
330
17
102
}
330
17
100
AcDbMlineStyle
  2
Standard
 70
     0
  3

 62
   256
 51
90.0
 52
90.0
 71
     2
 49
0.5
 62
   256
  6
BYLAYER
 49
-0.5
 62
   256
  6
BYLAYER
  0
ACDBPLACEHOLDER
  5
F
102
{ACAD_REACTORS
330
E
102
}
330
E
  0
SCALE
  5
1557
102
{ACAD_REACTORS
330
99
102
}
330
99
100
AcDbScale
 70
     0
300
1:1
140
1.0
141
1.0
290
     1
  0
SCALE
  5
1558
102
{ACAD_REACTORS
330
99
102
}
330
99
100
AcDbScale
 70
     0
300
1:2
140
1.0
141
2.0
290
     0
  0
SCALE
  5
1559
102
{ACAD_REACTORS
330
99
102
}
330
99
100
AcDbScale
 70
     0
300
1:4
140
1.0
141
4.0
290
     0
  0
SCALE
  5
155A
102
{ACAD_REACTORS
330
99
102
}
330
99
100
AcDbScale
 70
     0
300
1:5
140
1.0
141
5.0
290
     0
  0
SCALE
  5
155B
102
{ACAD_REACTORS
330
99
102
}
330
99
100
AcDbScale
 70
     0
300
1:8
140
1.0
141
8.0
290
     0
  0
SCALE
  5
155C
102
{ACAD_REACTORS
330
99
102
}
330
99
100
AcDbScale
 70
     0
300
1:10
140
1.0
141
10.0
290
     0
  0
SCALE
  5
155D
102
{ACAD_REACTORS
330
99
102
}
330
99
100
AcDbScale
 70
     0
300
1:16
140
1.0
141
16.0
290
     0
  0
SCALE
  5
155E
102
{ACAD_REACTORS
330
99
102
}
330
99
100
AcDbScale
 70
     0
300
1:20
140
1.0
141
20.0
290
     0
  0
SCALE
  5
155F
102
{ACAD_REACTORS
330
99
102
}
330
99
100
AcDbScale
 70
     0
300
1:30
140
1.0
141
30.0
290
     0
  0
SCALE
  5
1560
102
{ACAD_REACTORS
330
99
102
}
330
99
100
AcDbScale
 70
     0
300
1:40
140
1.0
141
40.0
290
     0
  0
SCALE
  5
1561
102
{ACAD_REACTORS
330
99
102
}
330
99
100
AcDbScale
 70
     0
300
1:50
140
1.0
141
50.0
290
     0
  0
SCALE
  5
1562
102
{ACAD_REACTORS
330
99
102
}
330
99
100
AcDbScale
 70
     0
300
1:100
140
1.0
141
100.0
290
     0
  0
SCALE
  5
1563
102
{ACAD_REACTORS
330
99
102
}
330
99
100
AcDbScale
 70
     0
300
2:1
140
2.0
141
1.0
290
     0
  0
SCALE
  5
1564
102
{ACAD_REACTORS
330
99
102
}
330
99
100
AcDbScale
 70
     0
300
4:1
140
4.0
141
1.0
290
     0
  0
SCALE
  5
1565
102
{ACAD_REACTORS
330
99
102
}
330
99
100
AcDbScale
 70
     0
300
8:1
140
8.0
141
1.0
290
     0
  0
SCALE
  5
1566
102
{ACAD_REACTORS
330
99
102
}
330
99
100
AcDbScale
 70
     0
300
10:1
140
10.0
141
1.0
290
     0
  0
SCALE
  5
1567
102
{ACAD_REACTORS
330
99
102
}
330
99
100
AcDbScale
 70
     0
300
100:1
140
100.0
141
1.0
290
     0
  0
SCALE
  5
1568
102
{ACAD_REACTORS
330
99
102
}
330
99
100
AcDbScale
 70
     0
300
1/128" = 1'-0"
140
0.0078125
141
12.0
290
     0
  0
SCALE
  5
1569
102
{ACAD_REACTORS
330
99
102
}
330
99
100
AcDbScale
 70
     0
300
1/64" = 1'-0"
140
0.015625
141
12.0
290
     0
  0
SCALE
  5
156A
102
{ACAD_REACTORS
330
99
102
}
330
99
100
AcDbScale
 70
     0
300
1/32" = 1'-0"
140
0.03125
141
12.0
290
     0
  0
SCALE
  5
156B
102
{ACAD_REACTORS
330
99
102
}
330
99
100
AcDbScale
 70
     0
300
1/16" = 1'-0"
140
0.0625
141
12.0
290
     0
  0
SCALE
  5
156C
102
{ACAD_REACTORS
330
99
102
}
330
99
100
AcDbScale
 70
     0
300
3/32" = 1'-0"
140
0.09375
141
12.0
290
     0
  0
SCALE
  5
156D
102
{ACAD_REACTORS
330
99
102
}
330
99
100
AcDbScale
 70
     0
300
1/8" = 1'-0"
140
0.125
141
12.0
290
     0
  0
SCALE
  5
156E
102
{ACAD_REACTORS
330
99
102
}
330
99
100
AcDbScale
 70
     0
300
3/16" = 1'-0"
140
0.1875
141
12.0
290
     0
  0
SCALE
  5
156F
102
{ACAD_REACTORS
330
99
102
}
330
99
100
AcDbScale
 70
     0
300
1/4" = 1'-0"
140
0.25
141
12.0
290
     0
  0
SCALE
  5
1570
102
{ACAD_REACTORS
330
99
102
}
330
99
100
AcDbScale
 70
     0
300
3/8" = 1'-0"
140
0.375
141
12.0
290
     0
  0
SCALE
  5
1571
102
{ACAD_REACTORS
330
99
102
}
330
99
100
AcDbScale
 70
     0
300
1/2" = 1'-0"
140
0.5
141
12.0
290
     0
  0
SCALE
  5
1572
102
{ACAD_REACTORS
330
99
102
}
330
99
100
AcDbScale
 70
     0
300
3/4" = 1'-0"
140
0.75
141
12.0
290
     0
  0
SCALE
  5
1573
102
{ACAD_REACTORS
330
99
102
}
330
99
100
AcDbScale
 70
     0
300
1" = 1'-0"
140
1.0
141
12.0
290
     0
  0
SCALE
  5
1574
102
{ACAD_REACTORS
330
99
102
}
330
99
100
AcDbScale
 70
     0
300
1-1/2" = 1'-0"
140
1.5
141
12.0
290
     0
  0
SCALE
  5
1575
102
{ACAD_REACTORS
330
99
102
}
330
99
100
AcDbScale
 70
     0
300
3" = 1'-0"
140
3.0
141
12.0
290
     0
  0
SCALE
  5
1576
102
{ACAD_REACTORS
330
99
102
}
330
99
100
AcDbScale
 70
     0
300
6" = 1'-0"
140
6.0
141
12.0
290
     0
  0
SCALE
  5
1577
102
{ACAD_REACTORS
330
99
102
}
330
99
100
AcDbScale
 70
     0
300
1'-0" = 1'-0"
140
12.0
141
12.0
290
     0
  0
TABLESTYLE
  5
93
102
{ACAD_REACTORS
330
92
102
}
330
92
100
AcDbTableStyle
  3
Standard
 70
     0
 71
     0
 40
0.06
 41
0.06
280
     0
281
     0
  7
Standard
140
0.18
170
     2
 62
     0
 63
     7
283
     0
 90
      512
 91
        0
  1

274
    -2
284
     1
 64
     0
275
    -2
285
     1
 65
     0
276
    -2
286
     1
 66
     0
277
    -2
287
     1
 67
     0
278
    -2
288
     1
 68
     0
279
    -2
289
     1
 69
     0
  7
Standard
140
0.25
170
     5
 62
     0
 63
     7
283
     0
 90
      512
 91
        0
  1

274
    -2
284
     1
 64
     0
275
    -2
285
     1
 65
     0
276
    -2
286
     1
 66
     0
277
    -2
287
     1
 67
     0
278
    -2
288
     1
 68
     0
279
    -2
289
     1
 69
     0
  7
Standard
140
0.18
170
     5
 62
     0
 63
     7
283
     0
 90
      512
 91
        0
  1

274
    -2
284
     1
 64
     0
275
    -2
285
     1
 65
     0
276
    -2
286
     1
 66
     0
277
    -2
287
     1
 67
     0
278
    -2
288
     1
 68
     0
279
    -2
289
     1
 69
     0
  0
DICTIONARYVAR
  5
1597
102
{ACAD_REACTORS
330
59
102
}
330
59
100
DictionaryVariables
280
     0
  1
1:1
  0
DICTIONARYVAR
  5
98
102
{ACAD_REACTORS
330
59
102
}
330
59
100
DictionaryVariables
280
     0
  1
Standard
  0
DICTIONARYVAR
  5
1579
102
{ACAD_REACTORS
330
59
102
}
330
59
100
DictionaryVariables
280
     0
  1
2
  0
DICTIONARYVAR
  5
5E
102
{ACAD_REACTORS
330
59
102
}
330
59
100
DictionaryVariables
280
     0
  1
1
  0
ENDSEC
  0
EOF
